Cifra da música: Even Flow - Pearl Jam

Esse cifra de Pearl Jam já foi acessado por 1176 pessoas.

Comente

A música Even Flow fez muito sucesso quando foi gravada por Pearl Jam. Quer conhecer a letra dela? Veja a letra de Even Flow e cante.

Veja também o vídeo da música tocada.


Versão 1
-======-


Tom : D

Riff Intro:
E|-----|----------------|------------------|
B|-----|----------5--7--|------------------|
G|-----|----------5--7--|------------------|
D|-----|--0-/5h7--------|--0---6-5—3p0-----|   3X
A|-----|----------------|------------------|
E|–15-|----------------|------------------|

RIFF 2 				RIFF 3
E|---------------------|     E|----------------|
B|---------------------|     B|----------------|
G|--7-5----------------|     G|--------5--7----|
D|------6-5-3-0-3h5-0--|     D|--5--7--------0-| 2X
A|---------------------|     A|----------------|
E|–--------------------|     E|----------------|

RIFF 1
E|----------------|
B|----------5--7--|
G|----------5--7--|
D|--0-/5h7-------0|
A|----------------|
E|----------------|

Riff Intro
Riff 2 
Riff 3

Riff 1
Freezin', rests his head on a pillow made of concrete, again
Oh, Feelin' maybe he'll see a little better set a days, ooh yeah
Oh, hand out, faces that he sees time again ain't that familiar, ooh yeah
Oh, dark grin, he can't help, when he's happy looks insane, oh yeah

Riff Intro + Riff 2

D    Bb			    D    C
Even flow, thoughts arrive like butterflies
    D        Bb                      D     C
Oh, he don't know, so he chases them away, yeah...ooh...
     D       Bb                   D    C       D    C       D    C
Oh, someday yet, he'll begin his life again...life again...life again...

Riff 1
Kneelin', looking through the paper though he doesn't know to read, ooh yeah
Oh, prayin', now to something that has never showed him anything
Oh, feelin', understands the weather of the winters on its way
Oh, ceilings, few and far between all the legal halls of shame, yeah...


D    Bb			    D    C
Even flow, thoughts arrive like butterflies
    D        Bb                      D     C
Oh, he don't know, so he chases them away, yeah...ooh...
     D       Bb                   D    C       
Oh, someday yet, he'll begin his life again
     D          Bb				D     C     D    C    D   C
Oh, whispering hands, gently lead, lead him away...him away, him away...

Riff 4
A|-3-3-3-4-4-4-5-5-5-5-5-5-5-5----|

Yeah!  Woo...ah yeah...fuck it up...

Solo 

Riff 5 ( Final do Solo Antes do Refrão ) 
E|----------------|------------------|
B|----------------|---------------5--|
G|----------5--7--|----------5--7---7|    4x
D|--0-/5h7-------0|--0-/5h7----------|
A|----------------|------------------|
E|----------------|------------------|

D    Bb			    D    C
Even flow, thoughts arrive like butterflies
    D        Bb                      D     C
Oh, he don't know, so he chases them away, yeah...ooh...
     D       Bb                   D    C       
Oh, someday yet, he'll begin his life again
     D          Bb				D     C     D    C    D   C
Oh, whispering hands, gently lead, lead him away...him away, him away...

Riff 4
Yeah!  Woo...uh huh...yeah, yeah, mommy, mommy...

Solo Final
E|----------------------------------|
B|----------------------------10----|
G|--12-10----10---------------------|    3x
D|--------12----12--10-10-12--------|
A|----------------------------------|
E|----------------------------------|

E|----------------------------------|
B|----------------------------10---|
G|--12-10----10---------------10---|  
D|--------12----12--10-10-12—-10---|
A|----------------------------------|
E|----------------------------------|









Versão 2
-======-


intro:
|-------------------------|-------------------------------------------
|-------------------------|-------------------------------------------
|------------7--7-7-7-----|-------repeat this 3 times-----------------
|------------7--7-7-7-----|-------------------------------------------
|------------5--5-5-5-----|---------------for intro-------------------
|--12--5--8--------------|-------------------------------------------

|---------------------------------------------------------------------
|---------------------------------------------------------------------
|-------7~--7p5-------------------------------------------------------
|---------------7p53-5p3---------------------------------------------
|-------------------------5--------------------5-------5--------------
|--------------------------------x/xx---5-s8-----5s8-----------------

verse: same as intro

chorus: 3 chords (not hard)rhythm is easy

---------  1/2 /----|------------------------------------------------
--------------/-----|------------------------------------------------
-7-7---3-----/------|--------7---5-----------------------------------
-7-7---3-------------|--------7---5-----------------------------------
-5-5---1-------------|--------5---3-----------------------------------
---------------------|------------------------------------------------
fills:
a:
|-------------------------------------------------|-------------------
|-------------------------------------13bs-------|-------------------
|--12b--10~~---12p10-----12b--10-10~--------------|-------------------
|--------------------12---------------------------|-------------------
|-------------------------------------------------|-------------------
|-------------------------------------------------|-------------------

b:
|----15b---15b--15b--15p13----13b-------------------------------------
|--------------------------15-----------------------------------------
|---------------------------------------------------------------------
|----------------------------------12s-------------------------------
|---------------------------------------------------------------------
|---------------------------------------------------------------------

c:
|-------10-10-10------------------------------------------------------
|-------10-10-10-13b--13br-13b----------------------------------------
|---12b------------------------12b--12bp10--12-10-------10--12s------
|-------------------------------------------------12-12---------------
|---------------------------------------------------------------------
|---------------------------------------------------------------------

d:
|----------------------------------------------------13b--------------
|--5--5--5-5-5--7-7-7-7--9-9-9-9--12-12-12-12-14-14------13b----------
|---------------------------------------------------------------------
|---------------------------------------------------------------------
|---------------------------------------------------------------------
|---------------------------------------------------------------------

solo:
|-------------------------------------------------10------------------
|---13b-13-13-13-13-13-13-13----13b-13b-15b-------10------10--13b-----
|---------------------------------------------12b-----12b-------------
|---------------------------------------------------------------------
|---------------------------------------------------------------------
|---------------------------------------------------------------------

|-------------------------------------10------------------------------
|---13b--13-10------------------------10------------------------------
|--------------12-12bp10-----10-12-10-----10-12-10-12bp10-------------
|------------------------12-------------------------------12----------
|---------------------------------------------------------------------
|---------------------------------------------------------------------

|------10------------10-----------------------------------------------
|---------13----13b-----13p10-----------------------------------------
|--12b-------14---------------12-12bp10-12-10-------------------------
|---------------------------------------------12-10-------------------
|---------------------------------------------------12-10b-10-8-10-10b
|---------------------------------------------------------------------

|---------------------------------------------------------------------
|---------------------------10----------------------------------------
|---------------------10h12-----------10--10-------10--------10-12b---
|-------------------------------10h12--------10h12-----10-12----------
|-10-8----8-10-8b-----------------------------------------------------
|------10---------10--------------------------------------------------

|-----10------------------15b-15b-13----------------------------------
|--10----13p10-10-13b--------------------10-----10-10-----------------
|------------------------------------12b---12b--------12b-10----------
|------------------------------------------------------------12-10----
|---------------------------------------------------------------------
|---------------------------------------------------------------------

|---------------------------------------------------------------------
|---------------------------------------------------------------------
|---------------------------------------------------------------------
|---------------------------------------------------------------------
|-12-11-10-8-10~~~~---------------------------------------------------
|---------------------------------------------------------------------

then:
|---------------------------------------------------------------------
|------5--7~~------5--7---9b-7----play several times------------------
|--5s7---------5s7----------------------------------------------------
|---------------------------------------------------------------------
|---------------------------------------------------------------------
|---------------------------------------------------------------------

heavy part before solo and at end of song:

---------------------------|---------four times--------|---10---
---------------------------|---------------------------|---10---
---four times--------------|---12p10---10----------10--|---10---
---------------------------|---------12---12p10--------|---10---
-10101010-10101011-12121212|--------------------12-----|---------
--8-8-8-8--8-8-8-9-10101010|---------------------------|---------

Eddie San ([email protected])
intro:
|-------------------------|-------------------------------------------
|-------------------------|-------------------------------------------
|------------7--7-7-7-----|-------repeat this 3 times-----------------
|------------7--7-7-7-----|-------------------------------------------
|------------5--5-5-5-----|---------------for intro-------------------
|--12--5--8--------------|-------------------------------------------

|---------------------------------------------------------------------
|---------------------------------------------------------------------
|-------7~--7p5-------------------------------------------------------
|---------------7p53-5p3---------------------------------------------
|-------------------------5--------------------5-------5--------------
|--------------------------------x/xx---5-s8-----5s8-----------------

verse: same as intro

chorus: 3 chords (not hard)rhythm is easy

---------  1/2 /----|------------------------------------------------
--------------/-----|------------------------------------------------
-7-7---3-----/------|--------7---5-----------------------------------
-7-7---3-------------|--------7---5-----------------------------------
-5-5---1-------------|--------5---3-----------------------------------
---------------------|------------------------------------------------
fills:
a:
|-------------------------------------------------|-------------------
|-------------------------------------13bs-------|-------------------
|--12b--10~~---12p10-----12b--10-10~--------------|-------------------
|--------------------12---------------------------|-------------------
|-------------------------------------------------|-------------------
|-------------------------------------------------|-------------------

b:
|----15b---15b--15b--15p13----13b-------------------------------------
|--------------------------15-----------------------------------------
|---------------------------------------------------------------------
|----------------------------------12s-------------------------------
|---------------------------------------------------------------------
|---------------------------------------------------------------------

c:
|-------10-10-10------------------------------------------------------
|-------10-10-10-13b--13br-13b----------------------------------------
|---12b------------------------12b--12bp10--12-10-------10--12s------
|-------------------------------------------------12-12---------------
|---------------------------------------------------------------------
|---------------------------------------------------------------------

d:
|----------------------------------------------------13b--------------
|--5--5--5-5-5--7-7-7-7--9-9-9-9--12-12-12-12-14-14------13b----------
|---------------------------------------------------------------------
|---------------------------------------------------------------------
|---------------------------------------------------------------------
|---------------------------------------------------------------------

solo:
|-------------------------------------------------10------------------
|---13b-13-13-13-13-13-13-13----13b-13b-15b-------10------10--13b-----
|---------------------------------------------12b-----12b-------------
|---------------------------------------------------------------------
|---------------------------------------------------------------------
|---------------------------------------------------------------------

|-------------------------------------10------------------------------
|---13b--13-10------------------------10------------------------------
|--------------12-12bp10-----10-12-10-----10-12-10-12bp10-------------
|------------------------12-------------------------------12----------
|---------------------------------------------------------------------
|---------------------------------------------------------------------

|------10------------10-----------------------------------------------
|---------13----13b-----13p10-----------------------------------------
|--12b-------14---------------12-12bp10-12-10-------------------------
|---------------------------------------------12-10-------------------
|---------------------------------------------------12-10b-10-8-10-10b
|---------------------------------------------------------------------

|---------------------------------------------------------------------
|---------------------------10----------------------------------------
|---------------------10h12-----------10--10-------10--------10-12b---
|-------------------------------10h12--------10h12-----10-12----------
|-10-8----8-10-8b-----------------------------------------------------
|------10---------10--------------------------------------------------

|-----10------------------15b-15b-13----------------------------------
|--10----13p10-10-13b--------------------10-----10-10-----------------
|------------------------------------12b---12b--------12b-10----------
|------------------------------------------------------------12-10----
|---------------------------------------------------------------------
|---------------------------------------------------------------------

|---------------------------------------------------------------------
|---------------------------------------------------------------------
|---------------------------------------------------------------------
|---------------------------------------------------------------------
|-12-11-10-8-10~~~~---------------------------------------------------
|---------------------------------------------------------------------

then:
|---------------------------------------------------------------------
|------5--7~~------5--7---9b-7----play several times------------------
|--5s7---------5s7----------------------------------------------------
|---------------------------------------------------------------------
|---------------------------------------------------------------------
|---------------------------------------------------------------------

heavy part before solo and at end of song:

---------------------------|---------four times--------|---10---
---------------------------|---------------------------|---10---
---four times--------------|---12p10---10----------10--|---10--
---------------------------|---------12---12p10--------|---10--
-10101010-10101011-12121212|--------------------12-----|---------
--8-8-8-8--8-8-8-9-10101010|---------------------------|---------

_______________________________________
Gentilmente enviada por:
Eddie San ([email protected])


Letra
-===-

Freezin', rests his head on a pillow made of concrete, again
Oh, Feelin' maybe he'll see a little better, set a days, ooh yeah
Oh, hand out, faces that he sees time again ain't that familiar, oh yeah
Oh, dark grin, he can't help, when he's happy looks insane, oh yeah

Even flow, thoughts arrive like butterflies
Oh, he don't know, so he chases them away
Someday yet, he'll begin his life again
Life again, life again...

Kneelin', looking through the paper though he doesn't know to read,
ooh yeah
Oh, prayin', now to something that has never showed him anything
Oh, feelin', understands the weather of the winters on its way
Oh, ceilings, few and far between all the legal halls of shame, yeah

Even flow, thoughts arrive like butterflies
Oh, he don't know, so he chases them away
Someday yet, he'll begin his life again
Whispering hands, gently lead him away
Him away, him away...
Yeah!
Woo...ah yeah...fuck it up...

Even flow, thoughts arrive like butterflies
Oh, he don't know, so he chases them away
Someday yet, he'll begin his life again, yeah
Oh, whispering hands, gently lead him away
Him away, him away...
Yeah!
Woo...uh huh...yeah, yeah, mommy, mommy...






Quer fazer uma correção nesta cifra?







    Comentários (0) Postar um Comentário

    Nenhum comentário encontrado. Seja o primeiro!