Cifra da música: Walking the Cow - Pearl Jam

Esse cifra de Pearl Jam já foi acessado por 646 pessoas.

Comente

A música Walking the Cow fez muito sucesso quando foi gravada por Pearl Jam. Quer conhecer a letra dela? Veja a letra de Walking the Cow e cante.

Veja também o vídeo da música tocada.


intro/verse:
|---------0---------------0-------------------------------------------
|------------1--------------1---1-------------------------------------
|-----------------------------2---------------------------------------
|-----2----------------2----------------------------------------------
|-3-3-----------3-0-0-------------------------------------------------
|---------------------------------------------------------------------

during first verse, after the C and Am, this comes:
|--------1----------1-------------------------------------------------
|----------1----------1-----------------------------------------------
|-----2-----------2------back to C and Am--then this aforementioned 
|---3----------0-------------------------------------------------riff-
|---------------------------------------------------------------------
|---------------------------------------------------------------------

bridge:
|-----1----------1h3p1-------3p1--------------------------------------
|-------1--------------1---------1------------------------------------
|---2---------2------------2-------2---then strum F and Dm------------
|-3--------0-------------3--------------------------------------------
|---------------------------------------------------------------------
|---------------------------------------------------------------------

solo:
|-------------------------3--5s10b-10-8-10-10b-10-8-7h8---------------
|-3b-3--3p1---1-------3h5-------------------------------10--13b-12-10-
|-----------0---2---5-------------------------------------------------
|---------------------------------------------------------------------
|---------------------------------------------------------------------
|---------------------------------------------------------------------

|---------------------------------------------------------------------
|-10-10---------------------------------------------------------------
|---------------------------------------------------------------------
|---------------------------------------------------------------------
|---------------------------------------------------------------------
|---------------------------------------------------------------------





Quer fazer uma correção nesta cifra?







    Comentários (0) Postar um Comentário

    Nenhum comentário encontrado. Seja o primeiro!