Cifra da música: Undone - Pearl Jam

Esse cifra de Pearl Jam já foi acessado por 762 pessoas.

Comente

A música Undone fez muito sucesso quando foi gravada por Pearl Jam. Quer conhecer a letra dela? Veja a letra de Undone e cante.

Veja também o vídeo da música tocada.


-|---------------|------------------------------------------------------------
-|---------------|------------------------------------------------------------
-|---------------|--------------------------------------------------------0---
-|---------------|---x--x----x------------------------------9-9-9---9-9---0---
-|---------------|---x--x----x-----x-x---x-x-x-x-x-x--------7-7-7---7-7---0---
-|---------------|---x--x----x-----x-x---x-x-x-x-x-x--0-0-0-5-5-5---5-5-------
    drum intro                                              Rhy Fig 1         

-|----------------------------------------------------------------------------
-|----------------------------------------------------------------------------
-|----------------------------------------------------------------------------
-|--11-11--11------9--9-9-9-9---0--11-11-11-11---------9-9-9--9--9---0--------
-|--12-12--12---7--7--7-7-7-7---0--12-12-12-12----7----7-7-7--7--7---0--------
-|--0--0---0----0--5--5-5-5-5------0--0--0--0---0-5----5-5-5--5--5------------
                                                      last stop..             

-|----------------------------------------------------------------------------
-|----------------------------------------------------------------------------
-|----------------------------------------------------------------------------
-|--11-11-11--11-----------9-9-9--9-9--/--11-11--11-11---9---9--9---7--9---7--
-|--12-12-12--12-------7---7-7-7--7-7-----12-12--12-12---10--10-10--10-10--10-
-|--0--0--0---0-----0--5---5-5-5--5-5-----0--0---0--0-------------------------
                       south of the northern border..                         

-|----------------------------------------------------------------------------
-|-7---7-7-7---7--7--7--7-----------------------------------------------------
-|-7---7-7-7---7--7--7--7-----------------------------------------------------
-|-7---7-7-7---9--7--7--7----9-9-9-9---9-9---11--11--11--11---------9-9-9-9---
-|-0---0-0-0---0--0--10-0----7-7-7-7---7-7---12--12--12--12------7--7-7-7-7---
-|---------------------------5-5-5-5---5-5---0---0---0---0----0--5--5-5-5-5---
                end Rhy Fig 1                                                 

-|----------------------------------------------------------------------------
-|----------------------------------------------------------------------------
-|----------------------------------------------------------------------------
-|--9-9----11-11--11-11----------9-9-9-9---9-9--/--11-11-11-11----9----9-----
-|--7-7----12-12--12-12-------7--7-7-7-7---7-7-----12-12-12-12-----10---10----
-|--5-5----0--0---0--0---0-0--5--5-5-5-5---5-5-----0--0--0--0-----------------
                                                                              

-|----------------------------------------------------------------------------
-|-------------------7---7-7-7---7-7--7---7-----------------------------------
-|-------------------7---7-7-7---7-7--7---7-----------------------------------
-|-9---7---9----7----7---7-7-7---9-7--7---7----9-9-9-9---9-9--/--11-11-11-11--
-|-10--10--10---10---0---0-0-0---0-0--10--0----7-7-7-7---7-7-----12-12-12-12--
-|---------------------------------------------5-5-5-5---5-5-----0--0--0--0---
                                                                              

-|-----------------------------------------|----------------------------------
-|-----------------------------------------|----------------------------------
-|-----------------------------------------|----------------------------------
-|---------9-9-9-9---9-9--/--11-11--11-11--|----------------------------------
-|-----7---7-7-7-7---7-7-----12-12--12-12--|----------------------------------
-|--0--5---5-5-5-5---5-5-----0--0---0--0---|----------------------------------
                                                                              

-|----------------------------------------------------------------------------
-|-3--3--3-3--3---3--3--3-3--3-5--5--5--5-5---5---5--5----3-3--3-3--3--3--3---
-|-5--5--5-5--5---4--4--4-4--4-7--7--7--7-7---6---6--6----5-5--5-5--5--4--4---
-|-5--5--5-5--5---5--5--5-5--5-7--7--7--7-7---7---7--7----5-5--5-5--5--5--5---
-|----------------------------------------------------------------------------
-|----------------------------------------------------------------------------
   Rhy Fig 2
  ..world has come undone..                               change it everyday            

-|----------------------------------------------------------------------------
-|-3--3-3----3-3-3-3--3--3--3-3-3--3--3---3---3--3----3-3--3--3--3---3--3--3--
-|-4--4-4----2-2-2-4--2--0--2-2-2--2--4---2---0--2----2-2--2--4--2---0--2--2--
-|-5--5-5----0-0-0-0--0--0--0-0-0--0--0---0---0--0----0-0--0--0--0---0--0--0--
-|----------------------------------------------------------------------------
-|----------------------------------------------------------------------------
                           building.. before it breaks..                                                   

-|----------------------------------------------------------------------------
-|-3-3-3--3--3--3-------------------------------------------------------------
-|-2-2-4--2--0--2-------------------------------------------------------------
-|-0-0-0--0--0--0-------------------------------------------------------------
-|----------------------------------------------------------------------------
-|----------------------------------------------------------------------------
        end Rhy Fig 2                                                         

-|----------------------------------------------------------------------------
-|----------------------------------------------------------------------------
-|----------------------------------------------------------------------------
-|-11-9--5--h9--/11---p9--5--7p5--7p5--7--9p7-9p7--h9-/11--9hh11h12---------
-|----------------------------------------------------------------------------
-|----------------------------------------------------------------------------
   solo 1 w/ Rhy Fig 1                                                        
					   	G2:
-|------------------------------------------|-|-------------------------------
-|------------------------------------------|-|-------------------------------
-|------------------------------------------|-|--7-6--------------------------
-|-11h12h14v---/17vv--p16vv--16h17p1614vv--|-|-------------------------------
-|------------------------------------------|-|-------------------------------
-|------------------------------------------|-|-------------------------------
           					w/ Rhy Fig 1
                                                   can't wait for election    

-|-------------------------------2--------------------5vv---------------------
-|--------------------------------------------3-------------------------------
-|----------------------------------------------------------------------------
-|----------------------------------------------------------------------------
-|----------------------------------------------------------------------------
-|----------------------------------------------------------------------------
   day witness the occupation..  corporations rule the day.. working on the   

-|------------------7v----------------------------------7----5v---------------
-|----------------------------------------------------------------------------
-|----------------------------------------------------------------------------
-|----------------------------------------------------------------------------
-|----------------------------------------------------------------------------
-|----------------------------------------------------------------------------
   pendulum throws..  farther out to the one side, swinging  has to sweep     

-------7--------5v----|-|---------------------|-|-----------------------------
-----------7----------|-|---------------------|-|-----------------------------
----------------------|-|---------------------|-|------9vv-----/7---9---------
----------------------|-|---------------------|-|-----------------------------
----------------------|-|---------------------|-|-----------------------------
----------------------|-|---------------------|-|-----------------------------
 back the other way       chorus w/ Rhy Fig 2      w/ feed back              

-|----------------------------------------------------------------------------
-|----------------------------------------------------------------------------
-|-9---9----9-----------------------------------------------9----9--9---------
-|-9---9----9---------x---------9-9-9-9--9-9---11-11-11-11--9----9--9---------
-|-7---7----7---------x---------7-7-7-7--7-7---12-12-12-12--7----7--7---------
-|-0---0----0---------x---------5-5-5-5--5-5---0--0--0--0---0----0--0---------
   all this hope and nowhere to go                          this is how.. i   

-|-----------------------------|----------------------------------------------
-|-----------------------------|----------------------------------------------
-|-9----9--9-------------------|----------------------------------------------
-|-9----9--9-------------------|--9vv--11vv--9h11-12-11--9--7--/14vv----------
-|-7----7--7-------------------|----------------------------------------------
-|-0----0--0-------------------|----------------------------------------------
   used to feel,  but no more     w/ Rhy Fig 1  &  Fill A (see bottom)                 

-|-------------------------------------------|-|-----------------------|-|----
-|-------------------------------------------|-|-----------------------|-|----
-|-------------------------------------------|-|-----------------------|-|----
-|-14h16p14h16--14h16p14h16--16b--14h16p14---|-|-----------------------|-|----
-|-------------------------------------------|-|-----------------------|-|----
-|-------------------------------------------|-|-----------------------|-|----
                                                 chorus w/ Rhy Fig 2          

-|-------------------------------------------------------------|--------------
-|-------------------------------------------------------------|--------------
-|-------------------------------------------------------------|--------------
-|--9-9-9-9--9-9---11-11-11------------9-9-9-9--9-9---11-11-11-|--------------
-|--7-7-7-7--7-7---12-12-12--------7---7-7-7-7--7-7---12-12-12-|------7-------
-|--5-5-5-5--5-5---0--0--0-----0---5---5-5-5-5--5-5---0--0--0--|--0---5-------
                                                    Repeat 2x             (break)

-|----------------------------------------------------------------------------
-|----------------------------------------------------------------------------
-|----------------------------------------------------------------------------
-|-5---7---7-7--7-7--7-7--7-7-7-7-7---5--7---7-7--7-7--7-7--7-7--7-7-7-7------
-|-5---7---7-7--7-7--7-7--7-7-7-7-7---5--7---7-7--7-7--7-7--7-7--7-7-7-7------
-|-3---5---5-5--5-5--5-5--5-5-5-5-5---3--5---5-5--5-5--5-5--5-5--5-5-5-5------
   2:51           w/ Fill B                                                           

-|----------------------------------------------------------------------------
-|----------------------------------------------------------------------------
-|----------------------------------------------------------------------------
-|-5--7--7-7--7-7---7-7--7-7-7--7-7---5--7---7-7--7-7--7-7-7-7--7-7-7--5--7---
-|-5--7--7-7--7-7---7-7--7-7-7--7-7---5--7---7-7--7-7--7-7-7-7--7-7-7--5--7---
-|-3--5--5-5--5-5---5-5--5-5-5--5-5---3--5---5-5--5-5--5-5-5-5--5-5-5--3--5---
                                                                              

Fill A:
-|----------------------------------------------------------------------------
-|-------10-------------------------------------------------------------------
-|--9h11-------7--4h6h7--p6--6h7p6p4---2h4p2p0---------4p0h2------------------
-|----------------------------------------------------------------------------
-|----------------------------------------------------------------------------
-|----------------------------------------------------------------------------
                                            w/ feedback                       
Fill B:
-|-----------------------------------------------------------------------------
-|-----------------------------------------------------------------------------
-|--6vv---7vv--9vv----6vv---7v--9v--------------------------------------------
-|-----------------------------------------------------------------------------
-|-----------------------------------------------------------------------------
-|-----------------------------------------------------------------------------



Quer fazer uma correção nesta cifra?







    Comentários (0) Postar um Comentário

    Nenhum comentário encontrado. Seja o primeiro!