Cifra da música: Unthought Known - Pearl Jam

Esse cifra de Pearl Jam já foi acessado por 401 pessoas.

Comente

A música Unthought Known fez muito sucesso quando foi gravada por Pearl Jam. Quer conhecer a letra dela? Veja a letra de Unthought Known e cante.

Veja também o vídeo da música tocada.


Tom: C

Intro 2x:

E|------------------------------------------------------------------------------|
B|------------------------------------------------------------------------------|
G|------------------------------------------------------3-3-3-3-3-3-3-3-3-3-----|
D|3-3-3-3-3-3-3---0-0-0-0-0-0-0-0-0-0---2-2-2-2-2-2-2---2-2-2-2-2-2-2-2-2-2-----|
A|3-3-3-3-3-3-3---3-3-3-3-3-3-3-3-3-3---3-3-3-3-3-3-3---3-3-3-3-3-3-3-3-3-3-----|
E|------------------------------------------------------------------------------|



All the thoughts you never see you are always thinking
Brain is wide, the brain is deep oh, are you sinking?
F        Dm/C          C          C7
Feel the path of every day which road you taking?
F         Dm/C          C        C7
Breathing hard, making hay yeah, this is living
F         Dm/C         C          C7
Look for love in evidence that you're worth keeping
F          Dm/C          C            C7
Swallowed whole in negatives it's so sad and sickening
F        Dm/C      C        C7
Feel the air up above oh, pool of blue sky
F        Dm/C        C          C7
Fill the air up with love all black with starlight
F         Dm/C        C         C7
Feel the sky blanket you with gems and rhinestones!!!
F	Dm/C             C        C7                F   Dm/C  C
See the path cut by the moon for you to walk on
      C7
For you to walk on...

( Dm  F  C  G) (2x)

         Dm            F
Nothing left, nothing left
          C             G
Nothing there, nothing here...
         Dm             F
Nothing left, nothing left
          C             G
Nothing there, nothing left...
         Dm            F
Nothing left, nothing left
          C             G
Nothing there, nothing here...
                       
Solo: F  Dm/C  C  C7 (2x)


E|---10-8-7-8-6-5-3-3/5---------10-8-7-8-6-5-3-3/5~--------|
B|----------------------6----------------------------------|
G|---------------------------------------------------------|
D|---------------------------------------------------------|
A|---------------------------------------------------------|
E|---------------------------------------------------------|



F        Dm/C            C         C7
See the path cut by the moon for you to walk on
F         Dm/C             C              C7
See the waves on distant shores awaiting your arrival
F          Dm/C            C              C7
Dream the dreams of other men you'll be no one's rival
F          Dm/C             C                 C7             F Dm/C  C
Swim the swims of others then you will be no one's rival
              C7
You will be no one's rival...

(intro)
A distant time, a distant space that's where we're living
A distant time, a distant places o what ya giving?
What ya giving?


Quer fazer uma correção nesta cifra?







    Comentários (0) Postar um Comentário

    Nenhum comentário encontrado. Seja o primeiro!