Cifra da música: Given to Fly - Pearl Jam

Esse cifra de Pearl Jam já foi acessado por 1074 pessoas.

Comente

A música Given to Fly fez muito sucesso quando foi gravada por Pearl Jam. Quer conhecer a letra dela? Veja a letra de Given to Fly e cante.

Veja também o vídeo da música tocada.


Versão 1
-======-

standard tuning

Intro and Verse
E |-------------------------7-------------------------------------
B |------------8---------------8-------------7------------5---3---
G |---------------0---------------0-------------0---------0---0---
D |---------------------------------------------------------------
A |-----0^10----------10---------------8^9-----------9----7---5---
E |---------------------------------------------------------------


E |-------------------------7---------------------------------
B |------------8---------------8-------------7------------3---
G |----------------0--------------0--------------0--------0---
D |-----------------------------------------------------------
A |-----0^10-----------10--------------8^9-----------9----5---
E |-----------------------------------------------------------

                            *
E |-------------------5------------2--------5------------2--
B |--3---------------------3---5-------3---------3---5------
G |-------0-------------------------------------------------
D |-------------------4---------------------4---------------
A |-----------5---------------------------------------------
E |---------------------------------------------------------

that's about all for the intro and verse it just repeats that
right before it gets heavy it plays the part with the * twice
if it seems tough or like it sounds wierd try this,
its based on a really wierd chord that is pretty much just slid up and down
the chords are as follows

E |-----7----6----4----2----
B |-----8----7----5----3----
G |-----0----0----0----0----
D |-----9----8----6----4----
A |----10----9----7----5----
E |-------------------------

verse starts picking up:Guitar comes in strumming D w/ distortion

E |--7-7-7-7-8-7--7-7-7-7-8-7--7-7-7-7-8-7--7-7-7-7-8-7--2-2-2-2-2-2-2|
B |--8-8-8-8-8-8--8-8-8-8-8-8--8-8-8-8-8-8--8-8-8-8-8-8--3-3-3-3-3-3-3|
G |--0-0-0-0-0-0--0-0-0-0-0-0--0-0-0-0-0-0--0-0-0-0-0-0--2-2-2-2-2-2-2|
D |-------------------------------------------------------------------|
A |-------------------------------------------------------------------|
E |-------------------------------------------------------------------|

let an open G note ring throughout above.

chorus:'he's...'
Guitar 1:*
E |--------x-8--x-8--x-8--x-x-x-x-x-x--x-8--x-8--x--8--8--7-5-3-3-3-3-|
B |--------x-8--x-8--x-8--x-x-x-x-x-x--x-8--x-8--x--8--8--7-5-3-3-3-3-|
G |--------x-9--x-9--x-9--x-x-x-x-x-x--x-9--x-9--x--9--9--8-6-4-4-4-4-|
D |--------x-10-x-10-x-10-x-x-x-x-x-x--x-10-x-10-x--10-10-9-7-5-5-5-5-|
A |--------x-10-x-10-x-10-x-x-x-x-x-x--x-10-x-10-x--10-10-9-7-5-5-5-5-|
E |--------x-8--x-8--x-8--x-x-x-x-x-x--x-8--x-8--x--8--8--7-5-3-3-3-3-|

*instead of the palm mutings before the C chord...you can substitute a B at
the 7th fret...it'll sound a little better but not much different.

Guitar 2:
E |----------------------------------------------------3-3-3-------3-3|
B |-----------------------------------------5-5--4--2--3-3-3-------3-3|
G |--x-5-x-5-x-5--x-x-x-x-x-x--x-5-x-5-x-5--5-5--4--2--0-0-0-0h2p0-0-0|
D |--x-5-x-5-x-5--x-x-x-x-x-x--x-5-x-5-x-5--5-5--4--2--0-0-0-------0-0|
A |--x-3-x-3-x-3--x-x-x-x-x-x--x-3-x-3-x-3--3-3--2--0-----------------|
E |----------------------------------------------------3-3-3-------3-3|

     at the end of the chorus...this is played as a fill:
E |-------------------------------------------------------------------|
B |-------------------------------------------------------------------|
G |-0---0h2--0--2--0--twice then pick up w/ the verse riff------------|
D |-------------------------------------------------------------------|
A |-------------------------------------------------------------------|
E |-------------------------------------------------------------------|

during the next verse, this fill starts to come in before it gets heavy:
E |-------------------------------------------------------------------|
B |-------------------------------------------------------------------|
G |--7-7---7-7----7-7--7-7---7-7---7-7-then build into the D----------|
D |-----------------------------------------------chord like the------|
A |-------------------------------------------------------1st verse---|
E |-------------------------------------------------------------------|

fill during heavy part of 2nd verse:
E |-------------------------------------------------------------------|
B |-------------------------------------------------------------------|
G |-------------------------------------------------------------------|
D |---7-7-7-7s5---5s4---2p0--2p0--7-7-7-7s5---5s4--2p0--2p0-----------|
A |-------------------------------------------------------------------|
E |-------------------------------------------------------------------|

E |-------------------------------------------------------------------|
B |-------------------------------------------------------------------|
G |-------------------------------------------------------------------|
D |---7-7-7-7s5---5s4---2p0--2p0--7-7-7-7s5---5s4--2p0--2p0-0-0-s4-4--|
A |-------------------------------------------------------------------|
E |-------------------------------------------------------------------|


[ Ending 6x ]

E |----7------------------------7-----8---7----------
B |-------8--6-----8---6---8------8----------8--6----
G |--------------------------------------------------
D |--------------------------------------------------
A |--------------------------------------------------
E |--------------------------------------------------
        
[ let ring ]
E |----7----------------------------------------------------------------------------------
B |--------8---6------8 / 3-----------------------3----------3---------3---------3--------
G |---------------------------------------2-------2-----2----2----2----2----2----2----2---
D |---------------------------------------0-------0-----0----0----0----0----0----0----0---
A |---------------------------------------------------------------------------------------
E |-----------------------------------------------------3---------3---------3---------3--- 


Versão 2
-======-

Mike High --> Low; dAGDAD
Stone Standard.

Last Chorus Fills; Evan Cowan.
Intro/Verse For Mike; Dave Coleman
Last Pre-Chorus For Stone; Mike Mabie

-|-----------------9----0-------------------------|---------------------------
-|------------------------10-----------9--7--5-5--|---------------------------
-|------------0--------------0-------0------------|---------------------------
-|------------------------------------------------|---------------------------
-|--0-9/10-10---10---10---------7/9-------7--5-5--|---------------------------
-|------------------------------------------------|---------------------------
 Mike Intro/Verse                                                             

-|------------------9-----0----0----------------0--7-------7--------|---------
-|--------------------------10---------9--5----------7-7-9---7-7-9--|---------
-|------------0----------------------0------0-----------------------|---------
-|--------------------------------------------0---------------------|---------
-|--0-9/10-10---10----10---------7/9------5-------------------------|---------
-|------------------------------------------------------------------|---------
                                                                              

-|--------------------------------------------------------------------------|-
-|--------------------------------------------------------------------------|-
-|--------------------------------------------------------------------------|-
-|--------------------------------------------------------------------------|-
-|--------------------------------------------------------------------------|-
-|--------------------------------------------------------------------------|-
 Stone Tacet                                                                  

-|--7--7-7-7-7-7--7-7-7-7-7-7--|----------------------------------------------
-|--7--7-7-7-7-9--7-7-7-7-7-9--|----------------------------------------------
-|--7--7-7-7-7-7--7-7-7-7-7-7--|----------------------------------------------
-|--0--0-0-0-0-0--0-0-0-0-0-0--|----------------------------------------------
-|-----------------------------|----------------------------------------------
-|-----------------------------|----------------------------------------------
 Mike                        4x                                               

-|--------------------------------|-------------------------------------------
-|--------------3----3-3-3-3-3-3--|-------------------------------------------
-|--4-4-4-4-4---2----2-2-2-2-2-2--|-------------------------------------------
-|--5-5-5-5-5---0----0-0-0-0-0-0--|-------------------------------------------
-|--5-5-5-5-5---------------------|-------------------------------------------
-|--3-3-3-3-3---------------------|-------------------------------------------
 Stone 3rd and 4th Time                                                       

-|--0--0--0--0--9--10-9---0---|--7-7-7-7-7-7--7-7-7-7-7-7--|------------------
-|--10-10-10-10-10-10-10--10--|--7-7-7-7-7-9--7-7-7-7-7-9--|------------------
-|--0--0--0--0--0--0--0---0---|--7-7-7-7-7-7--7-7-7-7-7-7--|------------------
-|--0--0--0--0--0--0--0---0---|--0-0-0-0-0-0--0-0-0-0-0-0--|------------------
-|--10-10-10-10-10-10-10--10--|----------------------------|------------------
-|----------------------------|----------------------------|------------------
 Pre-Chorus Mike                                                              

-|----------------|--2-2-2--0h2-2-2-2--2-2-2--0h2-2-2-2--|--------------------
-|----------------|--3-3-3-------------3-3-3-------------|--------------------
-|--4-4-4-4--5-4--|--2-2-2-------------2-2-2-------------|--------------------
-|--x-x-x-x--x-x--|--0-0-0-------------0-0-0-------------|--------------------
-|--5-5-5-5--5-5--|--------------------------------------|--------------------
-|--3-3-3-3--3-3--|--------------------------------------|--------------------
 Stone                                                                        

-|--10---10--10-10-10--x-x-x-x--10---10--10-10-10-10--9--7--5--5-5-5--|-----
-|--10---10--10-10-10--x-x-x-x--10---10--10-10-10-10--9--7--5--5-5-5--|-----
-|--10---10--10-10-10--x-x-x-x--10---10--10-10-10-10--9--7--5--5-5-5--|-----
-|--10---10--10-10-10--x-x-x-x--10---10--10-10-10-10--9--7--5--5-5-5--|-----
-|--10---10--10-10-10--x-x-x-x--10---10--10-10-10-10--9--7--5--5-5-5--|-----
-|--10---10--10-10-10--x-x-x-x--10---10--10-10-10-10--9--7--5--5-5-5--|-----
 Chorus Mike                                                                  

-|--5-5-5-5--|--3---------|---------------------------------------------------
-|--5-5-5-5--|--3---------|---------------------------------------------------
-|--5-5-5-5--|--3---------|---------------------------------------------------
-|--5-5-5-5--|--3---------|---------------------------------------------------
-|--5-5-5-5--|--3---------|---------------------------------------------------
-|--5-5-5-5--|--3---------|---------------------------------------------------
               Last Chord                                                     

-|--------------x-x-x-x----------------------------------|-----------|--------
-|--------------x-x-x-x----------------------------------|-----------|--------
-|--9--9--9--9--x-x-x-x-9--9--9--9--8--6--4--4-4-4-4-4--|--2--------|--------
-|--10-10-10-10-x-x-x-x-10-10-10-10-9--7--5--5-5-5-5-5--|--3--------|--------
-|--10-10-10-10-x-x-x-x-10-10-10-10-9--7--5--5-5-5-5-5--|--3--------|--------
-|--8--8--8--8--x-x-x-x-8--8--8--8--7--5--3--3-3-3-3-3--|--1--------|--------
 Stone                                                    Last Chord          

-|-------------------|--------------------------------------------------------
-|-------------------|--------------------------------------------------------
-|-------------------|--------------------------------------------------------
-|-------------------|--------------------------------------------------------
-|-------------------|--------------------------------------------------------
-|-------------------|--------------------------------------------------------
  Mike Verse (Above)                                                          

-|-------------------------------------------------------------|--------------
-|--3-3-3-3-3-3-3-3-3-3-3-3-3-3-3-3-3-3-3-3-3-3-3-3-3-3-3-3-3--|--------------
-|-------------------------------------------------------------|--------------
-|-------------------------------------------------------------|--------------
-|-------------------------------------------------------------|--------------
-|-------------------------------------------------------------|--------------
  Stone PM (Listen To Cd for Placement)                                       

-|------------------------------------------------------|---------------------
-|----------------------------3-3-3-3-3-3--3-3-3-3-3-3--|---------------------
-|--1412--1211--119--97---2-2-2-2-2-2--2-2-2-2-2-2--|---------------------
-|--x--x---x--x---x--x--x-x---0-0-0-0-0-0--0-0-0-0-0-0--|---------------------
-|--1210--109---9-7--75-----------------------------|---------------------
-|------------------------------------------------------|---------------------
  Stone 2nd Pre-Chorus                                                        

-|--------------------|----------------------------|--------------------------
-|--------------------|----------------------------|--------------------------
-|--2h4p2p0----0------|----------------------------|--------------------------
-|-----------4---4-0--|--10-10-10-10-10--14-12-10--|--------------------------
-|--------------------|----------------------------|--------------------------
-|--------------------|----------------------------|--------------------------
 Gtr.3 Last Chorus Fills   3:16                                               

-|----------------------------------------|-----------------------------------
-|----------------------------------------|-----------------------------------
-|--------------------------/21-19-17-19--|-----------------------------------
-|--17-17-17-17-17-17-17-17---------------|-----------------------------------
-|----------------------------------------|-----------------------------------
-|----------------------------------------|-----------------------------------
  3:26                                                                        

-|-----------------|----------------------------------------------------------
-|-----------------|----------------------------------------------------------
-|--9--------------|----------------------------------------------------------
-|--7---5----------|----------------------------------------------------------
-|--0---5----------|----------------------------------------------------------
-|------5----------|----------------------------------------------------------
 Outro Mike Repeat                                                            

-|-----------------------------------------|----------------------------|-----
-|-----------------------------------------|----------------------------|-----
-|--16-----------------16----17-16--14-----|--16------------------------|-----
-|-----17-15-17--15h17----17-----------17--|-----17-15-1712--127-75--|-----
-|-----------------------------------------|----------------------------|-----
-|-----------------------------------------|----------------------------|-----
 Stone                                   2x                                    






Quer fazer uma correção nesta cifra?








    Comentários (0) Postar um Comentário

    Nenhum comentário encontrado. Seja o primeiro!