Cifra da música: I am Mine - Pearl Jam

Esse cifra de Pearl Jam já foi acessado por 1421 pessoas.

Comente

A música I am Mine fez muito sucesso quando foi gravada por Pearl Jam. Quer conhecer a letra dela? Veja a letra de I am Mine e cante.

Veja também o vídeo da música tocada.


Versão 1
-======-

Riff:

E|---0---0--0---0--0--0-----0---0--0---0--0--0--0-|-------------------------|
B|---3---3--3---6--8--6-----5---5--5---6--5--1--3-|--2----2-2-2-2-2-2-------|
G|---2---2--2---5--7--5-----4---4--4---5--4--0--2-|--2----2-2-2-2-2-2-------|
D|---0---0--0---0--0--0-----0---0--0---0--0--0--0-|--2----2-2-2-2-2-2-------|
A|------------------------------------------------|--0----0-0-0-0-0-0-------|
E|------------------------------------------------|-------------------------|
                                                                              

Verso 1:

    D              F     C         G
The Selfish they're all standin in line, 

D          F           C              G
Faith and hoping and to buy themselves time, 

D     F         C               G
Me, I figure as each breath goes by, 

  F       G      D
I only own my mind. 


Verso 2:


    D           F              C           G                  
The north is to south what the clock is to time 

D                        F               C           G    
There's east and there's west and there's everywhere life 

D            F         C              G    
I know I was born and I know that I'll die 

    F     G       D             
the In-between is mine 

F G  D
I Am Mine.


Chorus:


       G           C         D
In the feeling, It gets left behind
        G         C          D
All the innocence lost at one time 

      G      C          D
significant, behind the eyes 

            C
There's no need to hide 

              
We're safe tonight. 


Ripeti riff:


E|---0---0--0---0--0--0-----0---0--0---0--0--0--0-|-------------------------|
B|---3---3--3---6--8--6-----5---5--5---6--5--1--3-|--2----2-2-2-2-2-2-------|
G|---2---2--2---5--7--5-----4---4--4---5--4--0--2-|--2----2-2-2-2-2-2-------|
D|---0---0--0---0--0--0-----0---0--0---0--0--0--0-|--2----2-2-2-2-2-2-------|
A|------------------------------------------------|--0----0-0-0-0-0-0-------|
E|------------------------------------------------|-------------------------|
                                                                              

Verso 3:
    D        F             C          G    
The ocean is full cause everyone's crying 

    D            F            C             G    
The full moon is looking for friends at hightide

D                F               C          G    
The sorrow grows bigger when the sorrows denied.
 
  F     G       D
I only know my mind, 

F G  D
I Am Mine.


Chorus:


        G            C        D
And the meaning, It gets left behind

        G         C           D
All the innocents lost at one time 

     G       C          D
significant, behind the eyes

           C
There's no need to hide 

              
We're safe tonight. 

        G             C          D
And the feelings that get left behind
        G         C           D
All the innocence broken with lies

     G           C          D
Significance, between the lines

       C
We may need to hide

        G             C          D            
And the meainigs that get left behind
        G         C           D
All the innocents lost at one time
         G          C          D
We're all different behind the eyes
          C
Theres no need to hide













Quer fazer uma correção nesta cifra?







    Comentários (0) Postar um Comentário

    Nenhum comentário encontrado. Seja o primeiro!