Cifra da música: Jeremy - Pearl Jam

Esse cifra de Pearl Jam já foi acessado por 2681 pessoas.

2.00 / 5 - 1
Comente

A música Jeremy fez muito sucesso quando foi gravada por Pearl Jam. Quer conhecer a letra dela? Veja a letra de Jeremy e cante.

Veja também o vídeo da música tocada.


                                       harmonics
----------------------|----------------------|------------------|-----
----------------------|----------------------|------------------|-----
----------------------|------------5---------|------------------|-----
---------------7----5-|---5------------------|---------7---5----|-----
--0---5H7--0-----0----|----------------------|--0--5H7--0----0--|-----
----------------------|----------------------|------------------|-----

   harmonics
----------------------|
----------------------|
----------------------|
---5------------------|
-----------5----------|
----------------------|

verse:

|--------------------------------------------------------------------|
|--------------------------------------------------------------------|
|--------------------------------------------------------------------|
|-----------------7--5------------7---5-----------7-----------7--5---|
|----0----5h7---0--0-----0---5h7-0--0----0--5h7-0---0-4--0-5h7-0---0-|
|--------------------------------------------------------------------|

then...

|--------------------------------------------------------------------|
|--------------------------------------------------------------------|
|----------9-----7-------7---------------7-----9---------------------|
|----------7--7--7-------5---------------7--7--7---------------------|
|--0--5h7-----0------0--------------5h7-----0------------------------|
|--------------------------------------------------------------------|

chorus:  F D E F A
   F D E C A

verse
chorus

then...

|--------------------------------------------------------------------|
|--------------------------------------------------------------------|
|--------------------------------------------------------------------|
|-------------7-----5--------do this a ------------------------------|
|---0-5h7--0----5h7--------------------bunch-of times----------------|
|--------------------------------------------------------------------|

end: F G A

The end riff is played on a twelve-string bass, as many people pointed
out.
Here it's arranged for a six-string guitar.

--------------------------I---------------------------I---------------
---------8-----------7----I---------3-----------5-----I---------------
-------9----------7-----7-I-------4----------5-----5--I---------------
--------------------------I---------------------------I---------------
---0----------0-----------I---0----------0------------I---------------
--------------------------I---------------------------I---------------


--------------------------I---------------------------I---------------
---------0-----------1----I--------0------------1-----I---------------
-------0----------2-----2-I------0-----------2-----2--I---------------
--------------------------I---------------------------I---------------
---0-----------0----------I---0----------0------------I---------------
--------------------------I---------------------------I---------------


Repeat the first three the second time through and end with:

                        H*      H*
--------------------------------------I-------------------------------
-------------1------------------------I-------------------------------
--------2-----------------------5-----I-------------------------------
------------------------7-------------I-------------------------------
---0-------------0--------------------I-------------------------------
--------------------------------------I-------------------------------

Eddie San
                         harmonics
----------------------|----------------------|------------------|-----
----------------------|----------------------|------------------|-----
----------------------|------------5---------|------------------|-----
---------------7----5-|---5------------------|---------7---5----|-----
--0---5H7--0-----0----|----------------------|--0--5H7--0----0--|-----
----------------------|----------------------|------------------|-----

   harmonics
----------------------|
----------------------|
----------------------|
---5------------------|
-----------5----------|
----------------------|

verse:

|--------------------------------------------------------------------|
|--------------------------------------------------------------------|
|--------------------------------------------------------------------|
|-----------------7--5------------7---5-----------7-----------7--5---|
|----0----5h7---0--0-----0---5h7-0--0----0--5h7-0---0-4--0-5h7-0---0-|
|--------------------------------------------------------------------|

then...

|--------------------------------------------------------------------|
|--------------------------------------------------------------------|
|----------9-----7-------7---------------7-----9---------------------|
|----------7--7--7-------5---------------7--7--7---------------------|
|--0--5h7-----0------0--------------5h7-----0------------------------|
|--------------------------------------------------------------------|

chorus:  F D E F A
	  F D E C A

verse
chorus

then...

|--------------------------------------------------------------------|
|--------------------------------------------------------------------|
|--------------------------------------------------------------------|
|-------------7-----5--------do this a ------------------------------|
|---0-5h7--0----5h7--------------------bunch-of times----------------|
|--------------------------------------------------------------------|

end: F G A

The end riff is played on a twelve-string bass, as many people pointed out. 
Here it's arranged for a six-string guitar.

--------------------------I---------------------------I---------------
---------8-----------7----I---------3-----------5-----I---------------
-------9----------7-----7-I-------4----------5-----5--I---------------
--------------------------I---------------------------I---------------
---0----------0-----------I---0----------0------------I---------------
--------------------------I---------------------------I---------------


--------------------------I---------------------------I---------------
---------0-----------1----I--------0------------1-----I---------------
-------0----------2-----2-I------0-----------2-----2--I---------------
--------------------------I---------------------------I---------------
---0-----------0----------I---0----------0------------I---------------
--------------------------I---------------------------I---------------


Repeat the first three the second time through and end with:

                        H*      H*
--------------------------------------I-------------------------------
-------------1------------------------I-------------------------------
--------2-----------------------5-----I-------------------------------
------------------------7-------------I-------------------------------
---0-------------0--------------------I-------------------------------
--------------------------------------I-------------------------------
_______________________________________
Gentilmente enviada por:
Eddie San ([email protected])


Quer fazer uma correção nesta cifra?








    Comentários (0) Postar um Comentário

    Nenhum comentário encontrado. Seja o primeiro!