Cifra da música: Walking Thru Barbed Wire - Papa Roach

Esse cifra de Papa Roach já foi acessado por 425 pessoas.

Comente

A música Walking Thru Barbed Wire fez muito sucesso quando foi gravada por Papa Roach. Quer conhecer a letra dela? Veja a letra de Walking Thru Barbed Wire e cante.

Veja também o vídeo da música tocada.


Afinação(D,A,D,G,B,E)

E|---------------------|--------------------|-----------------------------------
B|---------------------|--------------------|-----------------------------------
G|---------------------|---------1010101010-|---------10101010-5----------------
D|-7--7--7--3-3-3-3-2--|-7--7--7-x-x-x-x-x--|-7--7--7-x-x-x-x--x----------------
A|-7--7--7--3-3-3-3-2--|-7--7--7-8-8-8-8-8--|-7--7--7-8-8-8-8--3----------------
D|-7--7--7--3-3-3-3-2--|-7--7--7------------|-7--7--7---------------------------
                                

------------------------------------------------------------------------------
------------------------------------------------------------------------------
------------------------------------------------------------------------------
-x-3-3-----x-3-3-----x-3-x-2-x-3-3--x-x-x-x--x-3-3----x-3-x-5-----------------
-x-3-3-----x-3-3-----x-3-x-2-x-3-3--x-x-x-x--x-3-3----x-3-x-5-----------------
-x-3-3-----x-3-3-----x-3-x-2-x-3-3--x-x-x-x--x-3-3----x-3-x-5-----------------
                                                                       

------------------------------------------------------------------------------
------------------------------------------------------------------------------
------------------------------------------------------------------------------
-x-7-7-7--x-5-5-5--7-x-3-3-3--x-3-3-3-5-5-5-5-5------------------------------
-x-7-7-7--x-5-5-5--7-x-3-3-3--x-3-3-3-5-5-5-5-5------------------------------
-x-7-7-7--x-5-5-5--7-x-3-3-3--x-3-3-3-5-5-5-5-5------------------------------
                                                                    

------------------------------------------------------------------------------
------------------------------------------------------------------------------
---------------------------------5-5-5----------------------------------------
-x-3-3-3---x-5-5-5---x-7-7-7---x-5-5-5----------------------------------------
-x-3-3-3---x-5-5-5---x-7-7-7---x-3-3-3----------------------------------------
-x-3-3-3---x-5-5-5---x-7-7-7---x-3-3-3----------------------------------------
                                                 

------------------------------------------------------------------------------
------------------------------------------------------------------------------
------------------------------------------------------------------------------
-7--5-7-5------5--7/10-------------------8---------8-------------8------------
----------7--------------7--5--7--8-7-5--8--7-8-7--8--8---7-8-7--8------------
-----------------------------------------8---------8-------------8------------
                                       

------------------------------------------------------------------------------
------------------------------------------------------------------------------
-------1010101010-------17-17-17-17-17--------1010101010--------10101010-9-7--
-7-7-7-x-x-x-x-x--7-7-7--x--x--x--x--x--7-7-7-x-x-x-x-x--7-7-7--x-x-x-x--x-x--
-7-7-7-8-8-8-8-8--7-7-7-15-15-15-15-15--7-7-7-8-8-8-8-8--7-7-7--8-8-8-8--7-5--
-7-7-7------------7-7-7-----------------7-7-7------------7-7-7----------------
                                        

------------------------------------------------------------------------------
------------------------------------------------------------------------------
-------14-14-14-14-14--------14-14-14-14-17-14--------14-14-14-14-14----------
-8-8-8--x--x--x--x--x--8-8-8--x--x--x--x--x-----8-8-8--x--x--x--x--x----------
-8-8-8-12-12-12-12-12--8-8-8-12-12-12-12-15-12--8-8-8-12-12-12-12-12----------
-8-8-8-----------------8-8-8--------------------8-8-8-------------------------
                                                                              

--------------------------|---------------------------------------------------
--------------------------|---------------------------------------------------
-------12-12-12-12-14-12--|---------------------------------------------------
-8-8-8--x--x--x--x--x--x--|-3-3-3--5-5-5--7-7-7--5-5-5--3-3-3-3-3-2-----------
-8-8-8-10-10-10-10-12-10--|-3-3-3--5-5-5--7-7-7--5-5-5--3-3-3-3-3-2-----------
-8-8-8--------------------|-3-3-3--5-5-5--7-7-7--5-5-5--3-3-3-3-3-2-----------
                                           
 





Quer fazer uma correção nesta cifra?







    Comentários (0) Postar um Comentário

    Nenhum comentário encontrado. Seja o primeiro!