Cifra da música: Last Resort - Papa Roach

Esse cifra de Papa Roach já foi acessado por 860 pessoas.

Comente

A música Last Resort fez muito sucesso quando foi gravada por Papa Roach. Quer conhecer a letra dela? Veja a letra de Last Resort e cante.

Veja também o vídeo da música tocada.


  Cut my life into pieces

  This is my last resort
E
  Suffocation
D
  No breathing
  C                      B          D
  Don't give a fuck if I cut my arm bleeding


-Riff A
E|---------------------------------------------------|
B|---------------------------------------------------|
G|-------------------4-------------------------------|
D|-------5---4---5-------5---4---5-------5---4---5---|
A|---7-------------------------------5---------------|
E|---------------------------------------------------|

E|---------------------------------------------------|
B|---------------------------------------------------|
G|---4-----------------------------------------------|
D|-------5---4---5-----------------------------------|
A|---------------------------------------------------|
E|---------------------------------------------------|
-

-Riff B
E|---------------------------------------------------|
B|---------------------------------------------------|
G|-------------------4-------------------------------|
D|-------5---4---5-------5---4---5-------5---4---5---|
A|---3-----------------------------------------------|
E|-----------------------------------7---------------|

E|---------------------------------------------------|
B|---------------------------------------------------|
G|---4-----------------------------------------------|
D|-------5---4---5-----------------------------------|
A|---------------------------------------------------|
E|---------------------------------------------------|
-

  This is my last resort


Riff A
Riff B


Riff A
  Cut my life into pieces

Riff B
  I've reached my last resort
  Suffocation
  No breathing

Riff A
  Don't give a fuck if I cut my arm bleeding

Riff B
  Do you even care if I die bleeding?

Riff A
  Would it be wrong?
  Would it be right?

Riff B
  If I took my life tonight?
  Chances are that I might

Riff A
  Mutilation outta sight

Riff B                          Bm  D
  And I'm contemplating suicide


           E
  'Cuz I'm losing my sight
  C
  Losing my mind
  Bm       C          D           Bm
  Wish somebody would tell me I'm fine
  E
  Losing my sight
  C
  Losing my mind
  Bm       C          D           Bm
  Wish somebody would tell me I'm fine


Riff A
Riff B


Riff A
  I never realized I was spread too thin

Riff B
  Till it was too late 
  And I was empty within
  Hungry

Riff A
  Feeding on chaos
  And living in sin

Riff B
  Downward spiral where do I begin?

Riff A
  It all started when I lost my mother

Riff B
  No love for myself
  And no love for another

Riff A
  Searching to find a love up on a higher level

Riff B                              Bm     D
  Finding nothing but questions and devils


           E
  'Cuz I'm losing my sight
  C
  Losing my mind 
  Bm       C          D          Bm
  Wish somebody would tell me in fine
  E
  Losing my sight 
  C
  Losing my mind
  Bm       C          D           Bm
  Wish somebody would tell me I'm fine
  E         C
  Nothing's alright
  G          D
  Nothing is fine
E        C            G    D
  I'm running and I'm crying
E     C
  I'm crying
G     D
  I'm crying
E     C
  I'm crying
G     D
  I'm crying


E   D       C    Bm   D
  I - can't - go - on
E     D     C      Bm    D
  Liv - ing - this - way
E             D
  Cut my life into pieces
C            Bm     D
  This is my last resort
E
  Suffocation
D
  No breathing
  C                      B          D
  Don't give a fuck if I cut my arm bleeding


Riff A
  Would it be wrong
  Would it be right

Riff B
  If I took my life tonight
  Chances are that I might

Riff A
  Mutilation outta sight

Riff B                          Bm  D
  And I'm contemplating suicide


           E
  'Cuz I'm losing my sight
  C
  Losing my mind 
  Bm       C          D          Bm
  Wish somebody would tell me in fine
  E
  Losing my sight 
  C
  Losing my mind
  Bm       C          D           Bm
  Wish somebody would tell me I'm fine
  E         C
  Nothing's alright
  G          D
  Nothing is fine
E        C            G    D
  I'm running and I'm crying


  E   C       G    D
  I - can't - go - on
  E     C     G      D
  Liv - ing - this - way
E   C   G
E   C
  Bm    C  D  Bm
  Can't go on
E   C
  Bm C   D    Bm
  Living this way
E   C
  Bm  C     D  Bm
  Nothing's all
E
  Right

_____________________________________________________


Quer fazer uma correção nesta cifra?







    Comentários (0) Postar um Comentário

    Nenhum comentário encontrado. Seja o primeiro!