Cifra da música: Singular Indestructible Droid - Papa Roach

Esse cifra de Papa Roach já foi acessado por 449 pessoas.

Comente

A música Singular Indestructible Droid fez muito sucesso quando foi gravada por Papa Roach. Quer conhecer a letra dela? Veja a letra de Singular Indestructible Droid e cante.

Veja também o vídeo da música tocada.


Afinação(C,G,C,F,A,D)

D|------------------------------------------------------------------------------
A|------------------------------------------------------------------------------
F|------------------------------------------------------------------------------
C|-2-2-2-2-2-2-2-2-2-2-2-2-2-2-2-2-2-2-2-2-2-2-2-2-2-2-2-2-2-2-2-2-2-2-2-2-2-2--
G|------------------------------------------------------------------------------
C|------------------------------------------------------------------------------
                                         

------------------------------------------------------------------------------
------------------------------------------------------------------------------
------------------------------------------------------------------------------
------------------------------------------------------------------------------
-10p9-7-7--9p7-5-5--7p5-3-3--5p3-2-2------------------------------------------
------------------------------------------------------------------------------
                      

------------------------------------------------------------------------------
------------------------------------------------------------------------------
------------------------------------------------------------------------------
-5/7-7-7-7--7-7--7/9-9-9-9--9-9--9/10-10-10-10--10-10--10/12-12-12-12--12-12--
-5/7-7-7-7--7-7--7/9-9-9-9--9-9--9/10-10-10-10--10-10--10/12-12-12-12--12-12--
-5/7-7-7-7--7-7--7/9-9-9-9--9-9--9/10-10-10-10--10-10--10/12-12-12-12--12-12--
                                                                 

------------------------------------------------------------------------------
------------------------------------------------------------------------------
------------------------------------------------------------------------------
-0-2--5-2--2-5-4-5-7-5----0-2--5-2--2-5-4-5-7-5/9----0-2--5-2--2-5-4-5-7-5----
-0-2--5-2--2-5-4-5-7-5----0-2--5-2--2-5-4-5-7-5/9----0-2--5-2--2-5-4-5-7-5----
-0-2--5-2--2-5-4-5-7-5----0-2--5-2--2-5-4-5-7-5/9----0-2--5-2--2-5-4-5-7-5----
                                                       

------------------------|-----------------------------------------------------
------------------------|-----------------------------------------------------
------------------------|-----------------------------------------------------
-0-2--5-2--0h2-2-x-x-x--|-----------------------------------------------------
-0-2--5-2--0h2-2-x-x-x--|-----------------------------------------------------
-0-2--5-2--0h2-2-x-x-x--|-2-2-2-2-2-2-2-2-2-2-2-2-2-2-2-2-5-5-5-5-5-5-5-5-5-5-
                                                

------------------------------------------------------------------------------
------------------------------------------------------------------------------
------------------------------------------------------------------------------
------------------------------------------------------------------------------
------------------------------------------------------------------------------
-5-5-5-5-5-5-2-2-2-2-2-2-2-2-2-2-2-2-2-2-2-2-3-3-3-3-3-3-3-3-3-3-3-3-3-3-3-3--
                                                                              

-----------------------------------------------|------------------------------
-----------------------------------------------|------------------------------
-------------------------------------5--5-5-5--|------------------------------
-0h2-0h2-5-2-9--9-9-9----0h2-0h2-5-2-3--3-3-3--|--0-2--0-2--0-2--0-2----------
-0h2-0h2-5-2-9--9-9-9----0h2-0h2-5-2-3--3-3-3--|--0-2--0-2--0-2--0-2----------
-0h2-0h2-5-2-9--9-9-9----0h2-0h2-5-2-3--3-3-3--|--0-2--0-2--0-2--0-2----------
                                                                      

----------------------------------------------|-------------------------------
----------------------------------------------|-------------------------------
----------------------------------------------|-7/9--7/9--7/9--7/9------------
-0-2--0-2--0-2--0-2--0-2--0-2--0-2--0-2--0-2--|-x-x--x-x--x-x--x-x------------
-0-2--0-2--0-2--0-2--0-2--0-2--0-2--0-2--0-2--|-5/7--5/7--5/7--5/7------------
-0-2--0-2--0-2--0-2--0-2--0-2--0-2--0-2--0-2--|-------------------------------
 



Quer fazer uma correção nesta cifra?







    Comentários (0) Postar um Comentário

    Nenhum comentário encontrado. Seja o primeiro!