Cifra da música: Broken Home - Papa Roach

Esse cifra de Papa Roach já foi acessado por 531 pessoas.

Comente

A música Broken Home fez muito sucesso quando foi gravada por Papa Roach. Quer conhecer a letra dela? Veja a letra de Broken Home e cante.

Veja também o vídeo da música tocada.


 
Transcribed by: Daniel Shih
E-mail: [email protected]

Tuning: Drop D tuning

Intro:
E---------------------------|--------------------------|
B---------------------------|--------------------------|
G---------------------------|--------------------------|
D---------------------------|--------------------------|
A---0h4-4-4-4----0h4-4-4-4--|--0h4-4-4-4-4-4-----------|
D---0h4-4-4-4----0h4-4-4-4--|--0h4-4-4-4-4-4-----------|
      Repeat many times        Fade--------> in last time

i wrote the intro like this, but actually Jerry Horton(P roach's 
gutiarist), 
uses some effect to it, it's kinda like the one used in POD's 'Rock the 
Party'.

Riff 1
E------------------------------
B------------------------------
G------------------------------ Repeat 4 times
D--0-4-4--6-6-6--7-7-7--9-9-9--
A--0-4-4--4-4-4--5-5-5--7-7-7--
D--0-4-4--x-x-x--x-x-x--x-x-x--

Verse (main Riff)
E----------------------------
B----------------------------
G---------------------------- Repeat many times
D-0-4---------------0-2-2-2-- 
A-0-4---4-4h5/7-7---0-2-2-2--
D-0-4---------------0-2-2-2--
                            
chorus
E---------------------------------------------------------------
B---------------------------------------------------------------
G---------------------------------------------------------------
D-0-4-4--0-4-4--0-4-4--0-4-4-4--7-7-7-7-6-6-6-6-4-4-4-4-2-2-2-2- Repeat
A-0-4-4--0-4-4--0-4-4--0-4-4-4--5-5-5-5-4-4-4-4-2-2-2-2-0-0-0-0-
D-0-4-4--0-4-4--0-4-4--0-4-4-4--x-x-x-x-x-x-x-x-x-x-x-x-x-x-x-x-
---------------------------------
Play riff 1    'all alone.....'
---------------------------------
Play Verse
----------------------------------
Chorus      Many times
----------------------------------

Bridge
E------|---------------
B------|---------------
G------|--------------- 
D--4-4-|-4-4-0-2-2-0-4- Repeat
A--4-4-|-4-4-0-2-2-0-4-
D--4-4-|-4-4-0-2-2-0-4-

-----------------------------------
Repeat riff 1 many times  Then..........
-----------------------------------

E------------
B------------
G------------
D--0h4-4-x-4- Repeat    Then..........
A--0h4-4-x-4-
D--0h4-4-x-4-
 

Slide Pick up wards through strins Starting from 3rd fret 

-------------------------------------
Play riff 1 on screaming part
-------------------------------------

Outro
E-----------------------
B-----------------------
G-----------------------
D--4444-4444-4444-4444-- Then.....
A--4444-4444-4444-4444--
D--4444-4444-4444-4444--

E--------------------
B--------------------
G-->-----------------
D--4-4-4-4-4-4-4-4--- Repeat
A--4-4-4-4-4-4-4-4---
D--4-4-4-4-4-4-4-4---
   Fade--------->

Well there it is, Broken Home....im about 95 percent it is correct!!! 
strange, i just
downloaded it from napster took me about 20 minutes to tab it all out!! 
it's such an easy song!! but its damn cool!! 


Quer fazer uma correção nesta cifra?







    Comentários (0) Postar um Comentário

    Nenhum comentário encontrado. Seja o primeiro!