Cifra da música: Binge - Papa Roach

Esse cifra de Papa Roach já foi acessado por 548 pessoas.

Comente

A música Binge fez muito sucesso quando foi gravada por Papa Roach. Quer conhecer a letra dela? Veja a letra de Binge e cante.

Veja também o vídeo da música tocada.


Dropped-d tuning (DADGBE) low-to-high

---------------------------|--------------------------------------------------
---------------------------|--------------------------------------------------
---------10-10-10-10---10--|---------10-10-10-108-8-8-87-7------------------
-5-5-5-5-x--x--x--x----x---|-1-1-1-1-x--x--x--x--x-x-x-x-x-x------------------
-5-5-5-5-8--8--8--8----8---|-1-1-1-1-8--8--8--8--6-6-6-6-5-5------------------
-5-5-5-5-------------------|-1-1-1-1------------------------------------------
 Intro and Fill Play 2x      Play 2x (Then Do the sequence again)             

------------------------|-----------------------------------------------------
------------------------|-----------------------------------------------------
-----------------7--5-8-|-----------------7--5-8------------------------------
-5-5-5-5-5-5-5-5-x--x-x-|-1-1-1-1-1-1-1-1-x--x-x------------------------------
-5-5-5-5-5-5-5-5-5--3-6-|-1-1-1-1-1-1-1-1-5--3-6------------------------------
-5-5-5-5-5-5-5-5--------|-1-1-1-1-1-1-1-1-------------------------------------
 Verse    Play 2x Then ->  This 2x (Repeat throughout verse)                  

------------------------------------------------------------------------------
------------------------------------------------------------------------------
------------------------------------------------------------------------------
-5-5-5-5-5-5-5-5-3-3-3-3-3-3-3-3-5-5-5-5-5-5-5-5-3-3-3-3-3-3-3-3-1-1-1-1-1-1--
-5-5-5-5-5-5-5-5-3-3-3-3-3-3-3-3-5-5-5-5-5-5-5-5-3-3-3-3-3-3-3-3-1-1-1-1-1-1--
-5-5-5-5-5-5-5-5-3-3-3-3-3-3-3-3-5-5-5-5-5-5-5-5-3-3-3-3-3-3-3-3-1-1-1-1-1-1--
 Chorus                                                                       

------------------------------------------------------------------------------
------------------------------------------------------------------------------
------------------------------------------------------------------------------
-1-1-3-3-3-3-3-3-3-3-1-1-1-1-1-1-1-1-3-3-3-3-3-3-3-3--------------------------
-1-1-3-3-3-3-3-3-3-3-1-1-1-1-1-1-1-1-3-3-3-3-3-3-3-3--------------------------
-1-1-3-3-3-3-3-3-3-3-1-1-1-1-1-1-1-1-3-3-3-3-3-3-3-3--------------------------
                                                                              

------------------------------------------------------------------------------
------------------------------------------------------------------------------
------------------------------------------------------------------------------
-5-5-5-5-5-5-5-5-8-8-8-8-8-8-8-8-1-1-1-1-1-1-1-1-1-1-1-1-1-1-1-1-1-1-1-1-1-1--
-5-5-5-5-5-5-5-5-8-8-8-8-8-8-8-8-1-1-1-1-1-1-1-1-1-1-1-1-1-1-1-1-1-1-1-1-1-1--
-5-5-5-5-5-5-5-5-8-8-8-8-8-8-8-8-1-1-1-1-1-1-1-1-1-1-1-1-1-1-1-1-1-1-1-1-1-1--
 Bridge                                                                       

------------------------------------------------------------------------------
------------------------------------------------------------------------------
------------------------------------------------------------------------------
-1-1-1-1-1-1-1-1-1-1-------------------------------------3-3-3-3-3-3-3-3-3-3--
-1-1-1-1-1-1-1-1-1-1-------------------------------------3-3-3-3-3-3-3-3-3-3--
-1-1-1-1-1-1-1-1-1-1-0-0-0-0-0-0-0-0-0-0-0-0-0-0-0-0-0---3-3-3-3-3-3-3-3-3-3--
                     P.M.-----------------------------l                       

------------|-----------------------------------------------------------------
------------|-----------------------------------------------------------------
------------|-----------------------------------10-10-10-10-10-10-10-10-10----
-3-3-3-3-3-3|-8-8-8-8-8-8-8-8-8-8-8-8-8-8-8-8-8-10-10-10-10-10-10-10-10-10----
-3-3-3-3-3-3|-5-5-5-5-5-5-5-5-5-5-5-5-5-5-5-5-5-8--8--8--8--8--8--8--8--8-----
-3-3-3-3-3-3|-5-5-5-5-5-5-5-5-5-5-5-5-5-5-5-5-5-8--8--8--8--8--8--8--8--8-----
             Outro                                                            

------------------------------------------------------------------------------
------------------------------------------------------------------------------
-10-10-10-10-10-10-10---------------------------------------------------------
-10-10-10-10-10-10-10-12-12-12-12-12-12-12-12-12-12-12-12-12-12-12-12-3-3-3---
-8--8--8--8--8--8--8--12-12-12-12-12-12-12-12-12-12-12-12-12-12-12-12-3-3-3---
-8--8--8--8--8--8--8--12-12-12-12-12-12-12-12-12-12-12-12-12-12-12-12-3-3-3---
                                                                              

---------------------------|---------------------------------|----------------
---------------------------|---------------------------------|----------------
---------------------------|---------------------------------|-10-10-12-8-----
-3-3-3-3-3-3-3-3-3-3-3-3-3-|-0-3-3-0-3-3-0-3-3-0-3-0-3-3-3-3-|-x--x--x--x-----
-3-3-3-3-3-3-3-3-3-3-3-3-3-|-0-3-3-0-3-3-0-3-3-0-3-0-3-3-3-3-|-8--8--10-6-----
-3-3-3-3-3-3-3-3-3-3-3-3-3-|-0-3-3-0-3-3-0-3-3-0-3-0-3-3-3-3-|----------------
                            Do this then go into verse        Last Time       





Quer fazer uma correção nesta cifra?







    Comentários (0) Postar um Comentário

    Nenhum comentário encontrado. Seja o primeiro!