Cifra da música: LoveHateTragedy - Papa Roach

Esse cifra de Papa Roach já foi acessado por 486 pessoas.

Comente

A música LoveHateTragedy fez muito sucesso quando foi gravada por Papa Roach. Quer conhecer a letra dela? Veja a letra de LoveHateTragedy e cante.

Veja também o vídeo da música tocada.


Afinação(D,A,D,G,B,E)

E|------------------------------------------------------------------------------
B|------------------------------------------------------------------------------
G|----------12-------9------9h11p9--------------11------------------------------
D|----10-------10------------------13-----9-------------------------------------
A|------------------------------------9-----9-----------------------------------
D|-10----10-------10--------------------9-----9---------------------------------
                                                      

-----------------------|------------------------------------------------------
-----------------------|------------------------------------------------------
-----------------------|------------------------------------------------------
-7-7---7-7---2-2--5-5--|-10p9-10p9-10p9-10p9----------------------------------
-7-7---7-7---2-2--5-5--|------------------------------------------------------
-7-7---7-7---2-2--5-5--|------------------------------------------------------
 
------------------------------------------------------------------------------
-------0-0---------0-0---------------------0-0--------------------------------
-------5-52-------5-52-------0-0-0-------5-52------------------------------
-7-7-7-------7-7-7-------2-2-2-------5-5-5------------------------------------
-7-7-7-------7-7-7-------2-2-2-------5-5-5------------------------------------
-7-7-7-------7-7-7-------2-2-2-------5-5-5------------------------------------
  

------------------------------------------------------------------------------
-------0-0---------0-0---------0-0---------0-0--------------------------------
-------5-52-------5-52-------4-42-------2-2p0------------------------------
-7-7-7-------7-7-7-------2-2-2-------5-5-5------------------------------------
-7-7-7-------7-7-7-------2-2-2-------5-5-5------------------------------------
-7-7-7-------7-7-7-------2-2-2-------5-5-5------------------------------------
                                

------------------------------------------------------------------------------
------------------------------------------------------------------------------
-9---11----12----14-----------------------------------------------------------
-7----9----10----12-----------------------------------------------------------
-7----9----10----12-----------------------------------------------------------
-7----9----10----12-----------------------------------------------------------
 
-------------------------------------------------------------|----------------
-------------------------------------------------------------|----------------
-12-12-12-12-12-12-9-9-9-9-9-9-8-8-8-8-8-8-11-11-11-11-11-11-|-14-14-14-14----
--x--x--x--x--x--x-x-x-x-x-x-x-x-x-x-x-x-x--x--x--x--x--x--x-|--x--x--x--x----
-10-10-10-10-10-10-7-7-7-7-7-7-6-6-6-6-6-6--9--9--9--9--9--9-|-12-12-12-12----
-------------------------------------------------------------|----------------
      

------------------------------------------------------------------------------
------------------------------------------------------------------------------
------------------------------------------------------------------------------
------------------------------------------------------------------------------
------------------------------------------------------------------------------
-7-5-7-5-7-5--2-0-2-0-2-0--5-2-5-2-5-2--7-5-7-5-7-5--9-7-9-7-9-7--10-9-10-9---
  

-------------------------|----------------------------------------------------
-------------------------|----------------------------------------------------
-------------------------|----------------------------------------------------
-------------------------|-12-12-12-12-12-12-12-12----------------------------
-------------------------|-12-12-12-12-12-12-12-12----------------------------
-10-9--12-10-12-10-12-10-|-12-12-12-12-12-12-12-12----------------------------
                                                

--------------------------------------------------------------|-17-17-17---
--------------------------------------------------------------|---------------
--------5/9---9h11p9---------11------14---16-12----8---14--16-|---------------
---------------------9----------------------------------------|---------------
---------------------------9----------------------------------|---------------
-10-----------------------------------------------------------|---------------


-----x-x-x-x-----x-x-x-x-----x-x-x-x------------------------------------------
-----x-x-x-x-----x-x-x-x-----x-x-x-x------------------------------------------
-----x-x-x-x-----x-x-x-x-----x-x-x-x------------------------------------------
-7-7-x-x-x-x-7-7-x-x-x-x-2-2-x-x-x-x-5-5--------------------------------------
-7-7-x-x-x-x-7-7-x-x-x-x-2-2-x-x-x-x-5-5--------------------------------------
-7-7-x-x-x-x-7-7-x-x-x-x-2-2-x-x-x-x-5-5--------------------------------------
 



Quer fazer uma correção nesta cifra?







    Comentários (0) Postar um Comentário

    Nenhum comentário encontrado. Seja o primeiro!