Cifra da música: Revenge - Papa Roach

Esse cifra de Papa Roach já foi acessado por 588 pessoas.

Comente

A música Revenge fez muito sucesso quando foi gravada por Papa Roach. Quer conhecer a letra dela? Veja a letra de Revenge e cante.

Veja também o vídeo da música tocada.


Dropped-D tuning (DADGBE) low-to-high

------------------------------------------------------------------------------
------------------------------------------------------------------------------
------------------------------------------------------------------------------
-2-2-4---5-5-4-----------5-4--------------------------------------------------
-2-2-2---3-3-2-----------3-2--------------------------------------------------
-2-2-4---5-5-4-----------5-4--------------------------------------------------
 play this 4 times       then this 4 times                                    

------------------------------------------------------------------------------
------------------------------------------------------------------------------
------------------------------------------------------------------------------
---4-2-4---4------------------------------------------------------------------
-2-------5---4-5--------------------------------------------------------------
------------------------------------------------------------------------------
 Verses                                                                       

------------------------------------------------------------------------------
------------------------------------------------------------------------------
------------------------------------------------------------------------------
-2-2-4--5-5-4-----------------------------------------------------------------
-2-2-2--3-3-2-----------------------------------------------------------------
-2-2-4--5-5-4-----------------------------------------------------------------
 Chorus                                                                       

-------------------------------------|----------------------------------------
-------------------------------------|----------------------------------------
-------------------------------------|----------------------------------------
-5-4-x-4-x-4-x-4-x-x-----------------|-5-5-7-7--------------------------------
-3-2-x-2-x-2-x-2-x-x-----------------|-3-3-5-5--------------------------------
-5-4-x-4-x-4-x-4-x-x-----------------|-5-5-7-7--------------------------------
 Fill                 Repeat 4 times with this after the second time          

---------------------------------------------------------------|--------------
---------------12------------------------------12--------------|-12-12-12-----
-9---------7-----------10------9-7-9-------7------------9------|-10-10-10-----
---------------------------------------------------------------|--------------
---------------------------------------------------------------|--------------
---------------------------------------------------------------|--------------
 Solo w/ tremolo pedal figure out the exact rythm w/ cd   'Flee, Fly, Flow..' 

------------------------------------------------------------------------------
------------------------------------------------------------------------------
------------------------------------------------------------------------------
-9-11-9-11-11-11-11-12--------------------------------------------------------
-9-9--7-9--11-9--11-12--------------------------------------------------------
-9---------11----11-12--------------------------------------------------------
 Hard Part (Like verse but w/ chords)                                         

------------------------------------------------------------------------------
------------------------------------------------------------------------------
------------------------------------------------------------------------------
-9-9-9-9----7-7-7-9-11-9-11-0-7-----------------------------------------------
-9-9-9-9----7-7-7-9-9--7-9--0-7-----------------------------------------------
-9-9-9-9----7-7-7-9---------0-7-----------------------------------------------
 Next Hard Part                                                               

------------------------------------------------------------------------------
---6-4-6---6------------------------------------------------------------------
-4-------7---6-7--------------------------------------------------------------
------------------------------------------------------------------------------
------------------------------------------------------------------------------
------------------------------------------------------------------------------
 Outro                                                                       



Quer fazer uma correção nesta cifra?







    Comentários (0) Postar um Comentário

    Nenhum comentário encontrado. Seja o primeiro!