Cifra da música: Between Angels And Insects - Papa Roach

Esse cifra de Papa Roach já foi acessado por 566 pessoas.

Comente

A música Between Angels And Insects fez muito sucesso quando foi gravada por Papa Roach. Quer conhecer a letra dela? Veja a letra de Between Angels And Insects e cante.

Veja também o vídeo da música tocada.


Versão 1
========

INTRO 1

Intro: 2x
E|----------------------------------------------------------------------|
B|----------------------------------------------------------------------|
G|----------------------------------------------------------------------|
D|--0--0-0--0-0------8--8-8--8-8----------------------------------------|
A|----8-7-10-8-7h8-----8-7-10-8-7h8-----8-7-10-8-7h8-----8-7-10-8-8p7---|
E|------------------------------------5--5-5--5-5------8--8-8--8-8------|

(deixe o D soar)
E|--------------------------------|
B|--------------------------------|
G|--------------------------------|
D|--0-----------------------------|
A|----8-7-10-8-7-----8-7-10-8-7---|
E|--------------------------------|

RIFF 1

       D5             C5              D5             C5            A5             C5             A5              C5
e|-------------|---------------|-------------|---------------|-------------|---------------|-------------|---------------|
B|-------------|---------------|-------------|---------------|-------------|---------------|-------------|---------------|
G|--7-7-7-7-7--|--5-5-5-5-5-5--|--7-7-7-7-7--|--5-5-5-5-5-5--|-------------|--5-5-5-5-5-5--|-------------|--5-5-5-5-5-5--|
D|--7-7-7-7-7--|--5-5-5-5-5-5--|--7-7-7-7-7--|--5-5-5-5-5-5--|--7-7-7-7-7--|--5-5-5-5-5-5--|--7-7-7-7-7--|--5-5-5-5-5-5--|
A|--5-5-5-5-5--|--3-3-3-3-3-3--|--5-5-5-5-5--|--3-3-3-3-3-3--|--7-7-7-7-7--|--3-3-3-3-3-3--|--7-7-7-7-7--|--3-3-3-3-3-3--|
E|-------------|---------------|-------------|---------------|--5-5-5-5-5--|---------------|--5-5-5-5-5--|---------------|


RIFF 2

       D5             C5              D5             C5            A5            A#5              F5                  C5
e|-------------|---------------|-------------|---------------|-------------|-------------|------------------|------------------|
B|-------------|---------------|-------------|---------------|-------------|-------------|------------------|------------------|
G|--7-7-7-7-7--|--5-5-5-5-5-5--|--7-7-7-7-7--|--5-5-5-5-5-5--|-------------|-------------|---8--8--8--8--8--|------------------|
D|--7-7-7-7-7--|--5-5-5-5-5-5--|--7-7-7-7-7--|--5-5-5-5-5-5--|--7-7-7-7-7--|--8-8-8-8-8--|---8--8--8--8--8--|---8--8--8--8--8--|
A|--5-5-5-5-5--|--3-3-3-3-3-3--|--5-5-5-5-5--|--3-3-3-3-3-3--|--7-7-7-7-7--|--8-8-8-8-8--|--10-10-10-10-10--|---8--8--8--8--8--|
E|-------------|---------------|-------------|---------------|--5-5-5-5-5--|--6-6-6-6-6--|------------------|--10-10-10-10-10--|


VERSO 1

       D5                  G5                    F5                    G5
e|-------------|------------------------|------------------|------------------------|
B|-------------|------------------------|------------------|------------------------|
G|--7-7-7-7-7--|--12-12-12-12-12-12-12--|---8--8--8--8--8--|--12-12-12-12-12-12-12--|
D|--7-7-7-7-7--|--12-12-12-12-12-12-12--|---8--8--8--8--8--|--12-12-12-12-12-12-12--|
A|--5-5-5-5-5--|--10-10-10-10-10-10-10--|--10-10-10-10-10--|--10-10-10-10-10-10-10--|
E|-------------|------------------------|------------------|------------------------|

       A5                  G5                 A#5         C5 A#5 C5  A#5 C5   
e|-------------|------------------------|-------------|----------------------|
B|-------------|------------------------|-------------|----------------------|
G|-------------|--12-12-12-12-12-12-12--|-------------|----------------------|
D|--7-7-7-7-7--|--12-12-12-12-12-12-12--|--8-8-8-8-8--|---8---6---8---6---8--|
A|--7-7-7-7-7--|--10-10-10-10-10-10-10--|--8-8-8-8-8--|---8---6---8---6---8--|
E|--5-5-5-5-5--|------------------------|--6-6-6-6-6--|--10---8--10---8--10--|

     D5                  G5                    F5                    G5
e|-------------|------------------------|------------------|------------------------|
B|-------------|------------------------|------------------|------------------------|
G|--7-7-7-7-7--|--12-12-12-12-12-12-12--|---8--8--8--8--8--|--12-12-12-12-12-12-12--|
D|--7-7-7-7-7--|--12-12-12-12-12-12-12--|---8--8--8--8--8--|--12-12-12-12-12-12-12--|
A|--5-5-5-5-5--|--10-10-10-10-10-10-10--|--10-10-10-10-10--|--10-10-10-10-10-10-10--|
E|-------------|------------------------|------------------|------------------------|

       A5                  G5                 A#5         C5 A#5 C5  A#5 C5   
e|-------------|------------------------|-------------|----------------------|
B|-------------|------------------------|-------------|----------------------|
G|-------------|--12-12-12-12-12-12-12--|-------------|----------------------|
D|--7-7-7-7-7--|--12-12-12-12-12-12-12--|--8-8-8-8-8--|---8---6---8---6---8--|
A|--7-7-7-7-7--|--10-10-10-10-10-10-10--|--8-8-8-8-8--|---8---6---8---6---8--|
E|--5-5-5-5-5--|------------------------|--6-6-6-6-6--|--10---8--10---8--10--|

       D5                  G5                    F5                    G5
e|-------------|------------------------|------------------|------------------------|
B|-------------|------------------------|------------------|------------------------|
G|--7-7-7-7-7--|--12-12-12-12-12-12-12--|---8--8--8--8--8--|--12-12-12-12-12-12-12--|
D|--7-7-7-7-7--|--12-12-12-12-12-12-12--|---8--8--8--8--8--|--12-12-12-12-12-12-12--|
A|--5-5-5-5-5--|--10-10-10-10-10-10-10--|--10-10-10-10-10--|--10-10-10-10-10-10-10--|
E|-------------|------------------------|------------------|------------------------|

       A5                  G5                 A#5                 G5
e|-------------|------------------------|-------------|------------------------|
B|-------------|------------------------|-------------|------------------------|
G|-------------|--12-12-12-12-12-12-12--|-------------|--12-12-12-12-12-12-12--|
D|--7-7-7-7-7--|--12-12-12-12-12-12-12--|--8-8-8-8-8--|--12-12-12-12-12-12-12--|
A|--7-7-7-7-7--|--10-10-10-10-10-10-10--|--8-8-8-8-8--|--10-10-10-10-10-10-10--|
E|--5-5-5-5-5--|------------------------|--6-6-6-6-6--|------------------------|


>> REFRÃO (RIFF 1 [2X])  TOCADOS SIMULTANEAMENTE (DUAS GUITARRAS)
-|                                                                                  |    |
-|                                      +                                           |    |
-|                                                                                  |    |
B|------------------------------------------6---------------------------------------|    |
G|--7-------------------------------------------------------------------------------|  _/

       A5                  G5                 A#5                      C5                   _
e|-------------|------------------------|-------------|----------------------------------|   
B|-------------|------------------------|-------------|----------------------------------|    |
G|-------------|--12-12-12-12-12-12-12--|-------------|----------------------------------|    |
D|--7-7-7-7-7--|--12-12-12-12-12-12-12--|--8-8-8-8-8--|---8---8---8---8---8---8---8---8--|    |
A|--7-7-7-7-7--|--10-10-10-10-10-10-10--|--8-8-8-8-8--|---8---8---8---8---8---8---8---8--|    |
E|--5-5-5-5-5--|------------------------|--6-6-6-6-6--|--10--10--10--10--10--10--10--10--|     > TOCADOS SIMULTANEAMENTE (DUAS GUITARRAS)
-|                                                                                       |    |
-|                                      +                                                |    |
-|                                                                                       |    |
e|--5--------------------------------------8--------------5------------------------------|  _/


>> REFRÃO (RIFF1 [2X]) > INTRO 1 (3X) > REFRÃO (RIFF1 [2X]) 


Quer fazer uma correção nesta cifra?







    Comentários (0) Postar um Comentário

    Nenhum comentário encontrado. Seja o primeiro!