Cifra da música: Legacy - Papa Roach

Esse cifra de Papa Roach já foi acessado por 606 pessoas.

Comente

A música Legacy fez muito sucesso quando foi gravada por Papa Roach. Quer conhecer a letra dela? Veja a letra de Legacy e cante.

Veja também o vídeo da música tocada.


Afinação(D,A,D,G,B,E)

E|------------------|-----------------------------------------------------------
B|------------------|-----------------------------------------------------------
G|------------------|-----------------------------------------------------------
D|-0-0-x-0-0-x------|-------7----7--10p7---------7---7--8p7---------------------
A|-0-0-x-0-0-x------|-------8----8--8------------8---8--8-----------------------
D|-0-0-x-0-0-x------|-x-x-x----------------x-x-x--------------------------------
 

------------------------------------------------------------------------------
------------------------------------------------------------------------------
------------------------------------------------------------------------------
-8--8--8--8--8--8--8--8--8-8-8-8-8-8-8-8-10-10-10-10-10-10-10-10-10-10-10-10--
-10-10-10-10-10-10-10-10-8-8-8-8-8-8-8-8-12-12-12-12-12-12-12-12-10-10-10-10--
-8--8--8--8--8--8--8--8--8-8-8-8-8-8-8-8-10-10-10-10-10-10-10-10-10-10-10-10--
                                                                      

------------------------------------------------------------------------------
------------------------------------------------------------------------------
------------------------------------------------------------------------------
-10-10-10-10------------------------------------------------------------------
-10-10-10-10------------------------------------------------------------------
-10-10-10-10------------------------------------------------------------------
                                                                              

------------------------------------------------------------------------------
------------------------------------------------------------------------------
-7-------9-------10-10-10-10-10-10-10-10-----------------9-9-9-9-5-5-5-5------
-x-0-0-0-x-0-0-0-x--x--x--x--x--x--x--x--3-3-3-3-3-3-3-3-x-x-x-x-x-x-x-x------
-5-0-0-0-7-0-0-0-8--8--8--8--8--8--8--8--3-3-3-3-3-3-3-3-7-7-7-7-3-3-3-3------
---0-0-0---0-0-0-------------------------3-3-3-3-3-3-3-3----------------------
                                                                       

------------------------------------------------------------------------------
------------------------------------------------------------------------------
-7-------9-------10-10-10-10-10-10-10-10-----------------10-10-10-10-5-5-5-5--
-x-0-0-0-x-0-0-0-x--x--x--x--x--x--x--x--8-8-8-8-8-8-8-8-x--x--x--x--x-x-x-x--
-5-0-0-0-7-0-0-0-8--8--8--8--8--8--8--8--8-8-8-8-8-8-8-8-8--8--8--8--3-3-3-3--
---0-0-0---0-0-0-------------------------8-8-8-8-8-8-8-8----------------------
                                                              

--------------------------------------------------|---------------------------
--------------------------------------------------|---------------------------
-7-7-7-7-7-7-7-7-7-7-7-7--------------------------|---------------------------
-x-x-x-x-x-x-x-x-x-x-x-x-----0------0---------0---|---------------------------
-5-5-5-5-5-5-5-5-5-5-5-5-----0------0---------0---|---------------------------
-----------------------------0------0---------0---|-9-9-9---------------------
 



Quer fazer uma correção nesta cifra?







    Comentários (0) Postar um Comentário

    Nenhum comentário encontrado. Seja o primeiro!