Cifra da música: Decompression Period - Papa Roach

Esse cifra de Papa Roach já foi acessado por 403 pessoas.

Comente

A música Decompression Period fez muito sucesso quando foi gravada por Papa Roach. Quer conhecer a letra dela? Veja a letra de Decompression Period e cante.

Veja também o vídeo da música tocada.


Afinação(D,A,D,G,B,E)

E|--------------------------|---------------------------------------------------
B|--------------------------|---------------------------------------------------
G|------3---2h3-------------|---------------------------------0-----------------
D|--------------------------|--------3-5------5-7------3------------------------
A|---5----5-----5-----------|------1--------3--------0-----1--------------------
D|-5--------------5-4-------|--41--------3--------0-----1----------------------
                                                                   

-------------------------------3----------------------------------------------
------------------------------------------------------------------------------
------------------------3--------3--------------------------------------------
----------------------3---3--------3-------3----x-7h8-----x-7h8---------------
-5--6--3--5--3------1-------1------------0------x-7h8-8---x-7h8-8-------------
-------------3----1------------------4--------x-7h8-0---x-7h8-0-------------
                                                                              

------------------------------------------------------------------------------
------------------------------------------------------------------------------
------------------7-8-5-7-----------------------------------------------------
-5--5--5-5-5-5-4--x-x-x-x-3---1-1-1-1-1-1-1-1-1-1-1-1-1-1-1-1-0-0-0-0-0-0-0-0-
-5--5--5-5-5-5-4--5-6-3-5-3---1-1-1-1-1-1-1-1-1-1-1-1-1-1-1-1-0-0-0-0-0-0-0-0-
-5--5--5-5-5-5-4----------3---1-1-1-1-1-1-1-1-1-1-1-1-1-1-1-1-0-0-0-0-0-0-0-0-
                                                                  

------------------------------------------------------------------------------
------------------------------------------------------------------------------
------------------------------------------------------------------------------
-x-7h8-0-xx-3-xx-3------------------------------------------------------------
-x-7h8-0-xx-3-xx-3------------------------------------------------------------
-x-7h8-0-xx-3-xx-3------------------------------------------------------------
                                                                              

------------------------------------------------------------------------------
------------------------------------------------------------------------------
-7xxxx7xxxx6xxxx6xxxx5xxxx5xxxx3xxxx3xxxx-7xxxx7xxxx10xxxx10xxxx12xxxx12xxxx--
-5xxxx5xxxx4xxxx4xxxx3xxxx3xxxx1xxxx1xxxx-5xxxx5xxxxx8xxxxx8xxxx10xxxx10xxxx--
-5xxxx5xxxx4xxxx4xxxx3xxxx3xxxx1xxxx1xxxx-5xxxx5xxxxx8xxxxx8xxxx10xxxx10xxxx--
-5xxxx5xxxx4xxxx4xxxx3xxxx3xxxx1xxxx1xxxx-5xxxx5xxxxx8xxxxx8xxxx10xxxx10xxxx--
                                                                 

------------------------------------------------------------------------------
------------------------------------------------------------------------------
------------------------------------------------------------------------------
-13-13-13-13-13-13-13-13-12-12-12-12-12-12-12-12--5---------------------------
-13-13-13-13-13-13-13-13-12-12-12-12-12-12-12-12--5---------------------------
-13-13-13-13-13-13-13-13-12-12-12-12-12-12-12-12--5---------------------------
                                    

------------------------------------------------------------------------------
------------------------------------------------------------------------------
------------------------------------------------------------------------------
-3-5-7--5--3--5----3-5-7--5--3--5----3-5-7--5--7-8-7-8-10-8--10--12v----------
------------------------------------------------------------------------------
------------------------------------------------------------------------------
                                                                 

----------13------------------------------------------------------------------
------------------------------------------------------------------------------
-12-15-12----15-12------------------------------------------------------------
------------------------------------------------------------------------------
------------------------------------------------------------------------------
------------------------------------------------------------------------------



Quer fazer uma correção nesta cifra?







    Comentários (0) Postar um Comentário

    Nenhum comentário encontrado. Seja o primeiro!