Cifra da música: Dead Cell - Papa Roach

Esse cifra de Papa Roach já foi acessado por 524 pessoas.

Comente

A música Dead Cell fez muito sucesso quando foi gravada por Papa Roach. Quer conhecer a letra dela? Veja a letra de Dead Cell e cante.

Veja também o vídeo da música tocada.


Dropped-D tuning (DADGBE) low-to-high

-----------------|-------------|----------------------------------------------
-----------------|-------------|----------------------------------------------
-----------------|-------------|----------------------------------------------
-2-0-2-0-2-2-0-2-|-4-0-4-5-4-2-|-4-4-4-4-5-5-2--------------------------------
-2-0-2-0-2-2-0-2-|-4-0-4-5-4-2-|-2-2-2-2-5-5-2--------------------------------
-2-0-2-0-2-2-0-2-|-4-0-4-5-4-2-|---------5-5-2--------------------------------
 Play 3x           1st--------l  2nd----------l  PM during Verse              

-------------|-------|--------------------------------------------------------
-------------|-------|--------------------------------------------------------
-------------|-------|-4-4-4-4-4-4-6-6/76-7-7-7-7-7-9-9-9-9-9-911-1111111111-
-0-2-4/5-----|-2-2---|-x-x-x-x-x-x-x-x-x-x-x-x-x-x-x-x-x-x-x-x-x-x-x-x-x-x-x--
-0-2---------|-2-2---|-2-2-2-2-2-2-4-4/54-5-5-5-5-5-7-7-7-7-7-7-9-9-9-9-9-9--
-0-2---------|-2-2---|--------------------------------------------------------
 Chorus (4x)   Fill                                                           





Quer fazer uma correção nesta cifra?







    Comentários (0) Postar um Comentário

    Nenhum comentário encontrado. Seja o primeiro!