Cifra da música: Code Of Energy - Papa Roach

Esse cifra de Papa Roach já foi acessado por 440 pessoas.

Comente

A música Code Of Energy fez muito sucesso quando foi gravada por Papa Roach. Quer conhecer a letra dela? Veja a letra de Code Of Energy e cante.

Veja também o vídeo da música tocada.


Afinação(D,A,D,G,B,E)

E|------------------------------------------------------------------------------
B|------------------------------------------------------------------------------
G|------------------------------------------------------------------------------
D|------------------------------------------------------------------------------
A|---------------3p2------------------------------------------------------------
D|-2-2-2-5p2-2-2-----2-2-2-2-5-2------------------------------------------------
                                                                   

------------------------------------------------------------------------------
------------------------------------------------------------------------------
---------------54------------------------------------------------------------
-2-2-2-5p2-2-2-x-x-2-2-2-2-5-2------------------------------------------------
-2-2-2-5p2-2-2-32-2-2-2-2-5-2------------------------------------------------
-2-2-2-5p2-2-2-----2-2-2-2-5-2------------------------------------------------
                                                                   

------------------------------------------------------------------------------
------------------------------------------------------------------------------
------------------------------------------------------------------------------
-7-7-7-7-7-7-7-7-7-7-7-7-7-7-7-7-10-10-10-10-10-10-10-10-5-5-5-5-5-5-5-5-5----
-7-7-7-7-7-7-7-7-7-7-7-7-7-7-7-7-10-10-10-10-10-10-10-10-5-5-5-5-5-5-5-5-5----
-7-7-7-7-7-7-7-7-7-7-7-7-7-7-7-7-10-10-10-10-10-10-10-10-5-5-5-5-5-5-5-5-5----
                                                                     

------------------------------------------------------------------------------
------------------------------------------------------------------------------
----------7-5-4-5-4-----------------------------------------------------------
-7-7-7777-x-x-x-x-x--5--------------------------------------------------------
-7-7-7777-5-3-2-3-2--5--------------------------------------------------------
-7-7-7777------------5--------------------------------------------------------
                          

------------------------------------------------------------------------------
------------------------------------------------------------------------------
------------------------------------------------------------------------------
-5--x-x-5---5-5--x-5----------------------------------------------------------
-3--x-x-3---3-3--x-3----------------------------------------------------------
-3--x-x-3---3-3--x-3----------------------------------------------------------
                         

------------------------------|------------------|----------------------------
------------------------------|------------------|----------------------------
------------------------------|-5-5-5-5-5-5-5-5--|-5-5-5-5-5-5-5-5-9-9-9-9-12-
-xxxxxxxx---------------------|-x-x-x-x-x-x-x-x--|-x-x-x-x-x-x-x-x-x-x-x-x--x-
-xxxxxxxx-3p2-----------------|-3-3-3-3-3-3-3-3--|-3-3-3-3-3-3-3-3-7-7-7-7-10-
-xxxxxxxx-----2-2-2-2-5-2-----|------------------|----------------------------
                                                

-----------|------------------------|-----------------------------------------
-----------|------------------------|-----------------------------------------
-12-12-12--|------------------------|-----------------------------------------
--x--x--x--|-5--5--5-5--5--5--5-----|-2--2--5p2--3p2-3p2-5-5-----------------
-10-10-10--|-3--3--3-3--3--3--3-----|-2--2--5p2----------5-5-----------------
-----------|-3--3--3-3--3--3--3-----|-2--2--5p2----------5-5-----------------
                                              

----------------------|-------------------------------------------------------
----------------------|-------------------------------------------------------
----------------------|-------------------------------------------------------
-4--x-x-4---4-4--x-4--|-5--x-x-5---5-5--x-5-----------------------------------
-2--x-x-2---2-2--x-2--|-3--x-x-3---3-3--x-3-----------------------------------
-2--x-x-2---2-2--x-2--|-3--x-x-3---3-3--x-3-----------------------------------
                                            

------------------------------------------------------------------------------
------------------------------------------------------------------------------
------------------------------------------------------------------------------
---------5-5-10-10-9-9-5-5-----------5-5-10-10-9-9-5-5-----------5-5-7-7------
-----2-2-------------------------2-2-------------------------3-3--------------
-2-2-------------------------2-2-------------------------3-3------------------
                                                                   

------------------------------------------------------------------------------
------------------------------------------------------------------------------
-3333/4-4--4444/5-5-------------------9-9-9-9-9-9-9-9-7-7-7-7-5-5-5-5---------
-xxxx-x-x--xxxx-x-x----------5-5-7-7--x-x-x-x-x-x-x-x-x-x-x-x-x-x-x-x---------
-1111/2-2--2222/3-3------3-3----------7-7-7-7-7-7-7-7-5-5-5-5-3-3-3-3---------
---------------------3-3------------------------------------------------------
                                                                              

------------------------------------------------------------------------------
------------------------------------------------------------------------------
-9-9-9-9-9-9-9-9-12-12-12-12-12-12-12-12--------------------------------------
-x-x-x-x-x-x-x-x--x--x--x--x--x--x--x--x--------------------------------------
-7-7-7-7-7-7-7-7-10-10-10-10-10-10-10-10--------------------------------------
------------------------------------------------------------------------------
                                        

------------------------------------------------------------------------------
------------------------------------------------------------------------------
------------------------------------------------------------------------------
-9-9-9-9-9-9-9-9-9-9-9-9-9-9-9-9-9-12-12-12-12-12-12-12-12-14-14-14-14-14-14--
-9-9-9-9-9-9-9-9-9-9-9-9-9-9-9-9-9-12-12-12-12-12-12-12-12-14-14-14-14-14-14--
-9-9-9-9-9-9-9-9-9-9-9-9-9-9-9-9-9-12-12-12-12-12-12-12-12-14-14-14-14-14-14--
                                                  

--------|---------------------------------------------------------------------
--------|---------------------------------------------------------------------
--------|---------12-11-9-11-9-7----------------------------------------------
-14-14--|-9-9-999--x--x-x--x-x-x----------------------------------------------
-14-14--|-9-9-999-10--9-7--9-7-5----------------------------------------------
-14-14--|-9-9-999-------------------------------------------------------------
          



Quer fazer uma correção nesta cifra?







    Comentários (0) Postar um Comentário

    Nenhum comentário encontrado. Seja o primeiro!