Cifra da música: U - Pearl Jam

Esse cifra de Pearl Jam já foi acessado por 690 pessoas.

Comente

A música U fez muito sucesso quando foi gravada por Pearl Jam. Quer conhecer a letra dela? Veja a letra de U e cante.

Veja também o vídeo da música tocada.


-|--------------------|-----------------------|-------------------------------
-|--------------------|-----------------------|-------------------------------
-|----6---6-6--5-5-5--|----6---6-6---6---6-6--|-------------------------------
-|----7---7-7--7-7-7--|----7---7-7---7---7-7--|-------------------------------
-|--0---0-------------|--0---0-----0---0------|-------------------------------
-|--------------------|-----------------------|-------------------------------
 Intro Gtr.1        3x                                                        

-|-----------------------------|----------------------------------------------
-|-----------------------------|----------------------------------------------
-|-----------------------------|----------------------------------------------
-|-----------------------------|----------------------------------------------
-|--0-0-0-0-0-0-0-0-0-0-0-0-0--|----------------------------------------------
-|-----------------------------|----------------------------------------------
  Gtr.2 Slight PM            4x                                               

-|-------------------|-------------------|-------------------|----------------
-|-------------------|-------------------|-------------------|----------------
-|--7-7-7-7-7-7-7-7--|--9-9-9-9-9-9-9-9--|-------------------|----------------
-|--7-7-7-7-7-7-7-7--|--9-9-9-9-9-9-9-9--|--7-7-7-7-7-7-7-7--|----------------
-|--5-5-5-5-5-5-5-5--|--7-7-7-7-7-7-7-7--|--7-7-7-7-7-7-7-7--|----------------
-|-------------------|-------------------|--5-5-5-5-5-5-5-5--|----------------
  Verse Gtr.1                                                                 

-|-------------------|-------------------|-------------------|----------------
-|-------------------|-------------------|-------------------|----------------
-|--7-7-7-7-7-7-7-7--|--7-7-7-7-7-7-7-7--|--9-9-9-9-9-9-9-9--|----------------
-|--7-7-7-7-7-7-7-7--|--7-7-7-7-7-7-7-7--|--9-9-9-9-9-9-9-9--|----------------
-|--5-5-5-5-5-5-5-5--|--5-5-5-5-5-5-5-5--|--7-7-7-7-7-7-7-7--|----------------
-|-------------------|-------------------|-------------------|----------------
                                                                              

-|-------------------|-------------------|------------------------------------
-|-------------------|-------------------|------------------------------------
-|-------------------|-------------------|------------------------------------
-|--7-7-7-7-7-7-7-7--|--7-7-7-7-7-7-7-7--|------------------------------------
-|--7-7-7-7-7-7-7-7--|--7-7-7-7-7-7-7-7--|------------------------------------
-|--5-5-5-5-5-5-5-5--|--5-5-5-5-5-5-5-5--|------------------------------------
                                                                              

-|-------------------|-------------------|-------------------|----------------
-|-------------------|-------------------|-------------------|----------------
-|--2-2-2-2-2-2-2-2--|-------------------|-------------------|----------------
-|--0-0-0-0-0-0-0-0--|-------------------|--2-2-2-2-2-2-2-2--|----------------
-|-------------------|--2-2-2-2-2-2-2-2--|--0-0-0-0-0-0-0-0--|----------------
-|-------------------|--0-0-0-0-0-0-0-0--|-------------------|----------------
  Gtr.2                                                                       

-|---------3-2-0-2--|-------------------|-------------------|-----------------
-|------------------|-------------------|-------------------|-----------------
-|--2-2-2-----------|--2-2-2-2-2-2-2-2--|-------------------|-----------------
-|--0-0-0-----------|--0-0-0-0-0-0-0-0--|-------------------|-----------------
-|------------------|-------------------|--2-2-2-2-2-2-2-2--|-----------------
-|------------------|-------------------|--0-0-0-0-0-0-0-0--|-----------------
                                                                              

-|-------------------|-------------------|------------------------------------
-|-------------------|-------------------|------------------------------------
-|-------------------|-------------------|------------------------------------
-|--2-2-2-2-2-2-2-2--|--2-2-2-2-2-2-2-2--|------------------------------------
-|--0-0-0-0-0-0-0-0--|--0-0-0-0-0-0-0-0--|------------------------------------
-|-------------------|-------------------|------------------------------------
                                                                              

-|-------------------|-------------------|-------------------|----------------
-|-------------------|-------------------|-------------------|----------------
-|--7-7-7-7-7-7-7-7--|-------------------|-------------------|----------------
-|--7-7-7-7-7-7-7-7--|--7-7-7-7-7-7-7-7--|--9-9-9-9-9-9-9-9--|----------------
-|--5-5-5-5-5-5-5-5--|--7-7-7-7-7-7-7-7--|--9-9-9-9-9-9-9-9--|----------------
-|-------------------|--5-5-5-5-5-5-5-5--|--7-7-7-7-7-7-7-7--|----------------
  Pre-Chorus Gtr.1                                                            

-|-------------------|-------------------|-------------------|----------------
-|-------------------|-------------------|-------------------|----------------
-|-------------------|-------------------|--7-7-7-7-7-7-7-7--|----------------
-|-------------------|--7-7-7-7-7-7-7-7--|--7-7-7-7-7-7-7-7--|----------------
-|--2-2-2-2-2-2-2-2--|--7-7-7-7-7-7-7-7--|--5-5-5-5-5-5-5-5--|----------------
-|--0-0-0-0-0-0-0-0--|--5-5-5-5-5-5-5-5--|-------------------|----------------
 PM----------|                                                                

-|-----------|--------0--|-----------|-------------------|--------------------
-|--------3--|--------2--|-----------|-------------------|--------------------
-|--2--2--2--|--------2--|--------4--|-------------------|--------------------
-|--0--0--0--|--2--2--2--|--4--4--4--|-------------------|--------------------
-|--0--0-----|--0--0--0--|--2--2--2--|--2-2-2-2-2-2-2-2--|--------------------
-|-----------|-----------|-----------|--0-0-0-0-0-0-0-0--|--------------------
  Gtr. 2                              PM----------|                           

-|-------------------|--------3-2-0-2--|--------------------------------------
-|-------------------|-----------------|--------------------------------------
-|-------------------|--2-2-2----------|--------------------------------------
-|--2-2-2-2-2-2-2-2--|--0-0-0----------|--------------------------------------
-|--0-0-0-0-0-0-0-0--|-----------------|--------------------------------------
-|-------------------|-----------------|--------------------------------------
                                                                              

-|-------------------|-------------------|-------------------|----------------
-|-------------------|-------------------|-------------------|----------------
-|--7-7-7-7-7-7-7-7--|--9-9-9-9-9-9-9-9--|-------------------|----------------
-|--7-7-7-7-7-7-7-7--|--9-9-9-9-9-9-9-9--|--5-5-5-5-5-5-5-5--|----------------
-|--5-5-5-5-5-5-5-5--|--7-7-7-7-7-7-7-7--|--5-5-5-5-5-5-5-5--|----------------
-|-------------------|-------------------|--3-3-3-3-3-3-3-3--|----------------
 Chorus Gtr.1                                                                 

-|-------------------|-------------------|-------------------|----------------
-|-------------------|-------------------|-------------------|----------------
-|-------------------|--7-7-7-7-7-7-7-7--|--9-9-9-9-9-9-9-9--|----------------
-|--7-7-7-7-7-7-7-7--|--7-7-7-7-7-7-7-7--|--9-9-9-9-9-9-9-9--|----------------
-|--7-7-7-7-7-7-7-7--|--5-5-5-5-5-5-5-5--|--7-7-7-7-7-7-7-7--|----------------
-|--5-5-5-5-5-5-5-5--|-------------------|-------------------|----------------
                                                                              

-|-------------------|-------------------|------------------------------------
-|-------------------|-------------------|------------------------------------
-|-------------------|-------------------|------------------------------------
-|--5-5-5-5-5-5-5-5--|--7-7-7-7-7-7-7-7--|------------------------------------
-|--5-5-5-5-5-5-5-5--|--7-7-7-7-7-7-7-7--|------------------------------------
-|--3-3-3-3-3-3-3-3--|--5-5-5-5-5-5-5-5--|------------------------------------
                                                                              

-|-------------------|-------------------|-------------------|----------------
-|-------------------|-------------------|-------------------|----------------
-|--2-2-2-2-2-2-2-2--|-------------------|-------------------|----------------
-|--0-0-0-0-0-0-0-0--|-------------------|--0-0-0-0-0-0-0-0--|----------------
-|-------------------|--2-2-2-2-2-2-2-2--|--2-2-2-2-2-2-2-2--|----------------
-|-------------------|--0-0-0-0-0-0-0-0--|--3-3-3-3-3-3-3-3--|----------------
  Gtr.2                                                                       

-|------------------|-------------------|-------------------|-----------------
-|---------3-2-0-2--|-------------------|-------------------|-----------------
-|--2-2-2-----------|--2-2-2-2-2-2-2-2--|-------------------|-----------------
-|--0-0-0-----------|--0-0-0-0-0-0-0-0--|-------------------|-----------------
-|------------------|-------------------|--2-2-2-2-2-2-2-2--|-----------------
-|------------------|-------------------|--0-0-0-0-0-0-0-0--|-----------------
                                                                              

-|-------------------|---------------|----------------------------------------
-|-------------------|----2---2-2-2--|----------------------------------------
-|-------------------|----2---2-2-2--|----------------------------------------
-|--0-0-0-0-0-0-0-0--|--2-2-2-2-2-2--|----------------------------------------
-|--2-2-2-2-2-2-2-2--|--0-0-0-0-0-0--|----------------------------------------
-|--3-3-3-3-3-3-3-3--|---------------|----------------------------------------
                                                                              

-|-------------------|-------------------|-------------------|----------------
-|-------------------|-------------------|-------------------|----------------
-|--7-7-7-7-7-7-7-7--|--9-9-9-9-9-9-9-9--|-------------------|----------------
-|--7-7-7-7-7-7-7-7--|--9-9-9-9-9-9-9-9--|--7-7-7-7-7-7-7-7--|----------------
-|--5-5-5-5-5-5-5-5--|--7-7-7-7-7-7-7-7--|--7-7-7-7-7-7-7-7--|----------------
-|-------------------|-------------------|--5-5-5-5-5-5-5-5--|----------------
 Verse Gtr. 1                                                                 

-|-------------------|-------------------|-------------------|----------------
-|-------------------|-------------------|-------------------|----------------
-|--7-7-7-7-7-7-7-7--|--7-7-7-7-7-7-7-7--|--9-9-9-9-9-9-9-9--|----------------
-|--7-7-7-7-7-7-7-7--|--7-7-7-7-7-7-7-7--|--9-9-9-9-9-9-9-9--|----------------
-|--5-5-5-5-5-5-5-5--|--5-5-5-5-5-5-5-5--|--7-7-7-7-7-7-7-7--|----------------
-|-------------------|-------------------|-------------------|----------------
                                                                              

-|-------------------|-------------------|------------------------------------
-|-------------------|-------------------|------------------------------------
-|-------------------|-------------------|------------------------------------
-|--7-7-7-7-7-7-7-7--|--7-7-7-7-7-7-7-7--|------------------------------------
-|--7-7-7-7-7-7-7-7--|--7-7-7-7-7-7-7-7--|------------------------------------
-|--5-5-5-5-5-5-5-5--|--5-5-5-5-5-5-5-5--|------------------------------------
                                                                              

-|-------------------|-------------------|-------------------|----------------
-|-------------------|-------------------|-------------------|----------------
-|--2-2-2-2-2-2-2-2--|-------------------|--2-2-2-2-2-2-2-2--|----------------
-|--0-0-0-0-0-0-0-0--|-------------------|--0-0-0-0-0-0-0-0--|----------------
-|-------------------|--2-2-2-2-2-2-2-2--|-------------------|----------------
-|-------------------|--0-0-0-0-0-0-0-0--|-------------------|----------------
  Gtr. 2                                                                      

-|---------3-2-0-2--|-------------------|-------------------|-----------------
-|------------------|-------------------|-------------------|-----------------
-|--2-2-2-----------|--2-2-2-2-2-2-2-2--|-------------------|-----------------
-|--0-0-0-----------|--0-0-0-0-0-0-0-0--|-------------------|-----------------
-|------------------|-------------------|--2-2-2-2-2-2-2-2--|-----------------
-|------------------|-------------------|--0-0-0-0-0-0-0-0--|-----------------
                                                                              

-|-------------------|-------------------|------------------------------------
-|-------------------|-------------------|------------------------------------
-|-------------------|-------------------|------------------------------------
-|--2-2-2-2-2-2-2-2--|--2-2-2-2-2-2-2-2--|------------------------------------
-|--0-0-0-0-0-0-0-0--|--0-0-0-0-0-0-0-0--|------------------------------------
-|-------------------|-------------------|------------------------------------
                                                                              

-|-------------------|-------------------|-------------------|----------------
-|-------------------|-------------------|-------------------|----------------
-|--7-7-7-7-7-7-7-7--|-------------------|-------------------|----------------
-|--7-7-7-7-7-7-7-7--|--7-7-7-7-7-7-7-7--|--9-9-9-9-9-9-9-9--|----------------
-|--5-5-5-5-5-5-5-5--|--7-7-7-7-7-7-7-7--|--9-9-9-9-9-9-9-9--|----------------
-|-------------------|--5-5-5-5-5-5-5-5--|--7-7-7-7-7-7-7-7--|----------------
 Pre-Chorus Gtr. 1                                                            

-|-------------------|-------------------|-------------------|----------------
-|-------------------|-------------------|-------------------|----------------
-|-------------------|-------------------|--7-7-7-7-7-7-7-7--|----------------
-|-------------------|--7-7-7-7-7-7-7-7--|--7-7-7-7-7-7-7-7--|----------------
-|--2-2-2-2-2-2-2-2--|--7-7-7-7-7-7-7-7--|--5-5-5-5-5-5-5-5--|----------------
-|--0-0-0-0-0-0-0-0--|--5-5-5-5-5-5-5-5--|-------------------|----------------
  PM--------|                                                                 

-|-----------|--------0--|-----------|-------------------|--------------------
-|--------3--|--------2--|-----------|-------------------|--------------------
-|--2--2--2--|--------2--|--------4--|-------------------|--------------------
-|--0--0--0--|--2--2--2--|--4--4--4--|-------------------|--------------------
-|--0--0-----|--0--0--0--|--2--2--2--|--2-2-2-2-2-2-2-2--|--------------------
-|-----------|-----------|-----------|--0-0-0-0-0-0-0-0--|--------------------
  Gtr. 2                              PM---------|                            

-|-------------------|--------3-2-0-2--|--------------------------------------
-|-------------------|-----------------|--------------------------------------
-|-------------------|--2-2-2----------|--------------------------------------
-|--2-2-2-2-2-2-2-2--|--0-0-0----------|--------------------------------------
-|--0-0-0-0-0-0-0-0--|-----------------|--------------------------------------
-|-------------------|-----------------|--------------------------------------
                                                                              

-|-------------------|-------------------|---------------------|--------------
-|-------------------|-------------------|---------------------|--------------
-|--7-7-7-7-7-7-7-7--|--9-9-9-9-9-9-9-9--|---------------------|--------------
-|--7-7-7-7-7-7-7-7--|--9-9-9-9-9-9-9-9--|--5-5-5-5-5-5-5-5-5--|--------------
-|--5-5-5-5-5-5-5-5--|--7-7-7-7-7-7-7-7--|--5-5-5-5-5-5-5-5-5--|--------------
-|-------------------|-------------------|--3-3-3-3-3-3-3-3-3--|--------------
  Chorus Gtr. 1                                                               

-|-------------------|-------------------|-------------------|----------------
-|-------------------|-------------------|-------------------|----------------
-|-------------------|--7-7-7-7-7-7-7-7--|--9-9-9-9-9-9-9-9--|----------------
-|--7-7-7-7-7-7-7-7--|--7-7-7-7-7-7-7-7--|--9-9-9-9-9-9-9-9--|----------------
-|--7-7-7-7-7-7-7-7--|--5-5-5-5-5-5-5-5--|--7-7-7-7-7-7-7-7--|----------------
-|--5-5-5-5-5-5-5-5--|-------------------|-------------------|----------------
                                                                              

-|-------------------|-------------------|------------------------------------
-|-------------------|-------------------|------------------------------------
-|-------------------|-------------------|------------------------------------
-|--5-5-5-5-5-5-5-5--|--7-7-7-7-7-7-7-7--|------------------------------------
-|--5-5-5-5-5-5-5-5--|--7-7-7-7-7-7-7-7--|------------------------------------
-|--3-3-3-3-3-3-3-3--|--5-5-5-5-5-5-5-5--|------------------------------------
                                                                              

-|-------------------|-------------------|-------------------|----------------
-|-------------------|-------------------|-------------------|----------------
-|--2-2-2-2-2-2-2-2--|-------------------|-------------------|----------------
-|--0-0-0-0-0-0-0-0--|-------------------|--0-0-0-0-0-0-0-0--|----------------
-|-------------------|--2-2-2-2-2-2-2-2--|--2-2-2-2-2-2-2-2--|----------------
-|-------------------|--0-0-0-0-0-0-0-0--|--3-3-3-3-3-3-3-3--|----------------
 Gtr. 2                                                                       

-|-------------------|-------------------|-------------------|----------------
-|-------------------|-------------------|-------------------|----------------
-|-------------------|--2-2-2-2-2-2-2-2--|-------------------|----------------
-|--2-2-2-2-2-2-2-2--|--0-0-0-0-0-0-0-0--|-------------------|----------------
-|--0-0-0-0-0-0-0-0--|-------------------|--2-2-2-2-2-2-2-2--|----------------
-|-------------------|-------------------|--0-0-0-0-0-0-0-0--|----------------
                                                                              

-|-------------------|---------------------|----------------------------------
-|-------------------|---------------------|----------------------------------
-|-------------------|---------------------|----------------------------------
-|--0-0-0-0-0-0-0-0--|--2-2-2-2-2-2-2-2-2--|----------------------------------
-|--2-2-2-2-2-2-2-2--|--0-0-0-0-0-0-0-0-0--|----------------------------------
-|--3-3-3-3-3-3-3-3--|---------------------|----------------------------------
                                                                              

-|----------2p0---0h2---0-2------|--------------------------------------------
-|------3-------3-----3-----3----|--------------------------------------------
-|----2---3-------------------2--|--------------------------------------------
-|--0----------------------------|--------------------------------------------
-|-------------------------------|--------------------------------------------
-|-------------------------------|--------------------------------------------
  Gtr.3 During 2nd and 3rd Chorus 4x      (Improvise With D)                  

-|------------------------|---------------------------------------------------
-|------------------------|---------------------------------------------------
-|-----9--7---------------|---------------------------------------------------
-|--9--9--7--------7-7-7--|---------------------------------------------------
-|--9--7--5--7-7-7-7-7-7--|---------------------------------------------------
-|--7--------5-5-5-5-5-5--|---------------------------------------------------
  Bridge Gtr.1 PM--|                                                          

-|------------------------|---------------------------------------------------
-|------------------------|---------------------------------------------------
-|--4-----2--------2-2-2--|---------------------------------------------------
-|--4--2--0--2-2-2-2-2-2--|---------------------------------------------------
-|--2--2-----0-0-0-0-0-0--|---------------------------------------------------
-|-----0------------------|---------------------------------------------------
  Gtr. 2    PM-----|                                                          

-|----------------------|-----------------------------------------------------
-|----------------------|-----------------------------------------------------
-|-----6---6-6---5-5-5--|-----------------------------------------------------
-|-----7---7-7---7-7-7--|-----------------------------------------------------
-|---0---0-----0--------|-----------------------------------------------------
-|----------------------|-----------------------------------------------------
 Outro Gtr. 1  Till End                                                       

-|----------------------|-----------------------------------------------------
-|----------------------|-----------------------------------------------------
-|----6---6-6----5-5-5--|-----------------------------------------------------
-|----7---7-7----7-7-7--|-----------------------------------------------------
-|--0---0-----0---------|-----------------------------------------------------
-|----------------------|-----------------------------------------------------
  Gtr. 2 4th Time Till End                                                    

-|----------------------|-----------------------------------------------------
-|----------------------|-----------------------------------------------------
-|----------------------|-----------------------------------------------------
-|-----5---5------------|-----------------------------------------------------
-|--/7---7---7--5-3--0--|-----------------------------------------------------
-|----------------------|-----------------------------------------------------
  Gtr. 3 Fill          2x                                                     

-|--------------|-------------------------------------------------------------
-|--------------|-------------------------------------------------------------
-|-----6--------|-------------------------------------------------------------
-|-----7--------|-------------------------------------------------------------
-|-----0--------|-------------------------------------------------------------
-|--------------|-------------------------------------------------------------



Quer fazer uma correção nesta cifra?







    Comentários (0) Postar um Comentário

    Nenhum comentário encontrado. Seja o primeiro!