Cifra da música: Tremor Christ - Pearl Jam

Esse cifra de Pearl Jam já foi acessado por 724 pessoas.

Comente

A música Tremor Christ fez muito sucesso quando foi gravada por Pearl Jam. Quer conhecer a letra dela? Veja a letra de Tremor Christ e cante.

Veja também o vídeo da música tocada.


intro/verse:
----------------------------------------------------------------------
---0---0---0---0---0---0---0---0---0---0----0----0----0----0----0----
12--12--12--12--12--12--12--12--11---11---11---11---11---11---11---11-
11--11--11--11--11--11--11--11--10---10---10---10---10---10---10---10-
12--12--12--12--12--12--12--12--11---11---11---11---11---11---11---11-
12--12--12--12--12--12--12--12--11---11---11---11---11---11---11---11-

fill in verse:
|---------------------------------------------------------------------
|-10--13--12~---------------------------------------------------------
|---------------------------------------------------------------------
|---------------------------------------------------------------------
|---------------------------------------------------------------------
|---------------------------------------------------------------------

chorus:
|---------------------------------------------------------------------
|---------------------------------------------------------------------
|-6--8~--6------------------------------------------------------------
|---------------------------------------------------------------------
|---------------------------------------------------------------------
|---------------------------------------------------------------------
|
|--2-2-2-2-2----4-----------------------------------------------------
|--2-2-2-2-2----4-----------------------------------------------------
|--3-3-3-3-3----5-----------------------------------------------------
|--4-4-4-4-4----6-----------------------------------------------------
|--4-4-4-4-4----6-----------------------------------------------------
|--2-2-2-2-2----4-----------------------------------------------------

after chorus:
|---------------------------------------------------------------------
|---------------------------------------------------------------------
|--------12-------12--------------11-------11-------------------------
|-----11-------11-------11-----10-------10----------------------------
|--12-------12-------12-----11-------11-------------------------------
|---------------------------------------------------------------------

verse
chorus
after chorus bit
then:
|---------------------------------------------------------------------
|--with wah-----------------------------------------------------------
|--12--12-12-12--11--11--11-11----------------------------------------
|--11--11-11-11--10--10--10-10----------------------------------------
|--12--12-12-12--11--11--11-11----------------------------------------
|---------------------------------------------------------------------

then verse


Quer fazer uma correção nesta cifra?







    Comentários (0) Postar um Comentário

    Nenhum comentário encontrado. Seja o primeiro!