Cifra da música: Strangest Tribe - Pearl Jam

Esse cifra de Pearl Jam já foi acessado por 493 pessoas.

Comente

A música Strangest Tribe fez muito sucesso quando foi gravada por Pearl Jam. Quer conhecer a letra dela? Veja a letra de Strangest Tribe e cante.

Veja também o vídeo da música tocada.


-------------0----------------0----------------0----------------0------------------
---------0-2---2-0--------0-2---2-0--4-----0-2---2-0--------0-2---2-0--------------
---2---2---------0--2---2---------0--2---2------------2---2------------------------
---2----------------2----------------2----------------2----------------------------
-----0----------------0----------------0----------------0--------------------------
G1-Intro

---------3-5-7-5-3---------------------5-3-0-5-7-5-3-------------------------------
-------5-------------------------------0-0-0---------------------------------------
-----4-----------------------------------------------------------------------------
---2-------------------------------------------------------------------------------
-----------------------------------------------------------------------------------
-----------------------------------------------------------------------------------
G2-Intro

---0-------------------------------------------------------------------------------
---0---------------------5-----3-----3----3--3--3---3---3--------------------------
---0---------------4-----2-----2---2-2----2--2--2---2---2--------------------------
---2---------------4--0--2--0--0-----0----0--0--0---0---0--0-----------------------
---2---------2--0--2---------------------------------------0-----------------------
---0--0-2-3------------------------------------------------------------------------
G1

---3---------------------------5-----5----------5---5---5--------------------------
---0---------------3-----5-----3-----3----------3---3---3--------------------------
---0---------4--2--4-----2-----2-----2----2--2--2---2---2--------------------------
---2--2-4-5--------4--0--2--0--0-----0----0--0--0---0---0--0-----------------------
---2---------------2---------------------------------------0-----------------------
---0-------------------------------------------------------------------------------
G2

---0-------------------------------------------------------------------------------
---0---------------------5-----3-----3----3--3--3---3---3--------------------------
---0---------------4-----2-----2---2-2----2--0--2---2---2--------------------------
---2---------------4--0--2--0--0-----0----0--0--0---0---0--0-----------------------
---2---------2--0--2---------------------------------------0-----------------------
---0--0-2-3------------------------------------------------------------------------
G1-Verse                                            Both guitars play 6x

---3---------------------------5-----5----5--3--5---5---5--------------------------
---0---------------3-----5-----3-----3----3--3--3---3---3--------------------------
---0---------4--2--4-----2-----2-----2----2--2--2---2---2--------------------------
---2--2-4-5--------4--0--2--0--0-----0----0--0--0---0---0--0-----------------------
---2---------------2---------------------------------------0-----------------------
---0-------------------------------------------------------------------------------
G2-Verse

--2---2-2-2---2-2-2---2-2--2--2--2--4---4-4-4---4-4-4---4-4--4--4--4---------------
--2---2-2-2---2-2-2---2-2--2--2--2--5---5-5-5---5-5-5---5-5--5--5--5---------------
--2---2-2-2---2-2-2---2-2--2--2--2--6---6-6-6---6-6-6---6-6--6--6--6---------------
--4---4-4-4---4-4-4---4-4--4--4--4--6---6-6-6---6-6-6---6-6--6--6--6---------------
--4---4-4-4---4-4-4---4-4--4--4--4--4---4-4-4---4-4-4---4-4--4--4--4---------------
--2---2-2-2---2-2-2---2-2--2--2--2-------------------------------------------------
G1                Follow the ageless tide             follow the angled

------------------------------------9----9--9----9--9-----9---9---9----------------
-10---10-10---10-10----10--10--10---9----9--9----9--9-----9---9---9----------------
-11---11-11---11-11----11--11--11---9----9--9----9--9-----9---9---9----------------
-11---11-11---11-11----11--11--11--11---11-11---11-11----11--11--11----------------
--9----9--9----9--9-----9---9---9--11---11-11---11-11----11--11--11----------------
------------------------------------9----9--9----9--9-----9---9---9----------------
G2

---0---0-0-0---0-0-0---0-0--0--0--0--2---2-2-2---2-2--2---2-2-2---2-2--------------
---0---0-0-0---0-0-0---0-0--0--0--0--3---3-3-3---3-3--2---2-2-2---2-2--------------
---1---1-1-1---1-1-1---1-1--1--1--1--4---4-4-4---4-4--2---2-2-2---2-2--------------
---2---2-2-2---2-2-2---2-2--2--2--2--4---4-4-4---4-4--4---4-4-4---4-4--------------
---2---2-2-2---2-2-2---2-2--2--2--2--2---2-2-2---2-2--4---4-4-4---4-4--------------
---0---0-0-0---0-0-0---0-0--0--0--0-------------------2---2-2-2---2-2--------------
G1 Light         follow the strangest tribe_________________________

---0---0-0-0---0-0-0---0-0--0--0--0--7---7-7-7---7-7-------------------------------
---0---0-0-0---0-0-0---0-0--0--0--0--7---7-7-7---7-7--10---10-10---10--------------
---1---1-1-1---1-1-1---1-1--1--1--1--7---7-7-7---7-7--11---11-11---11--------------
---2---2-2-2---2-2-2---2-2--2--2--2--9---9-9-9---9-9--11---11-11---11--------------
---2---2-2-2---2-2-2---2-2--2--2--2--9---9-9-9---9-9---9----9--9----9--------------
---0---0-0-0---0-0-0---0-0--0--0--0--7---7-7-7---7-7-------------------------------
G2

---4---4------------------------4---4----------------------------------------------
---5---5------------------------5---5----------------------------------------------
---6---6---3----3--3----3--3----6---6---3----3--3----3--3-------3--3--3------------
---6---6---4----4--4----4--4----6---6---4----4--4----4--4-------4--4--4------------
---4---4---4----4--4----4--4----4---4---4----4--4----4--4-------4--4--4------------
-----------2----2--2----2--2------------2----2--2----2--2-------2--2--2------------
G1

---9---9------------------------9---9----------------------------------------------
---9---9------------------------9---9----------------------------------------------
---9---9---3----3--3----3--3----9---9---3----3--3----3--3--------------------------
--11--11---4----4--4----4--4---11--11---4----4--4----4--4----------4---------------
--11--11---4----4--4----4--4---11--11---4----4--4----4--4-------4--4--4------------
---9---9---2----2--2----2--2----9---9---2----2--2----2--2-------2--2--2------------
G2

---0-------------------------------------------------------------------------------
---0---------------------5-----3-----3----3--3--3---3---3--------------------------
---0---------------4-----2-----2---2-2----2--0--2---2---2--------------------------
---2---------------4--0--2--0--0-----0----0--0--0---0---0--0-----------------------
---2---------2--0--2---------------------------------------0-----------------------
---0--0-2-3------------------------------------------------------------------------
G1               It's   6   am

---3---------------------------5-----5----5--3--5---5---5--------------------------
---0---------------3-----5-----3-----3----3--3--3---3---3--------------------------
---0---------4--2--4-----2-----2-----2----2--2--2---2---2--------------------------
---2--2-4-5--------4--0--2--0--0-----0----0--0--0---0---0--0-----------------------
---2---------------2---------------------------------------0-----------------------
---0-------------------------------------------------------------------------------
G2

---5/7----75------2-----------2---------------------------------------------------
-------------------------5---------------------------------------------------------
-----------------------------------------------------------------------------------
-----------------------------------------------------------------------------------
-----------------------------------------------------------------------------------
-----------------------------------------------------------------------------------
Organ

---0-------------------------------------------------------------------------------
---0---------------------5-----3-----3----3--3--3---3---3--------------------------
---0---------------4-----2-----2---2-2----2--0--2---2---2--------------------------
---2---------------4--0--2--0--0-----0----0--0--0---0---0--0-----------------------
---2---------2--0--2---------------------------------------0-----------------------
---0--0-2-3------------------------------------------------------------------------
G1            You're   waiting for

---3---------------------------5-----5----5--3--5---5---5--------------------------
---0---------------3-----5-----3-----3----3--3--3---3---3--------------------------
---0---------4--2--4-----2-----2-----2----2--2--2---2---2--------------------------
---2--2-4-5--------4--0--2--0--0-----0----0--0--0---0---0--0-----------------------
---2---------------2---------------------------------------0-----------------------
---0-------------------------------------------------------------------------------
G2

-------------------------5---------------------------------------------------------
---5---------------------------7----------5/7-------53----------------------------
----------4--------4---------------------------7-----------------------------------
-----------------------------------------------------------------------------------
-----------------------------------------------------------------------------------
-----------------------------------------------------------------------------------
Organ

---0-------------------------------------------------------------------------------
---0---------------------5-----3-----3----3--3--3---3---3--------------------------
---0---------------4-----2-----2---2-2----2--0--2---2---2--------------------------
---2---------------4--0--2--0--0-----0----0--0--0---0---0--0-----------------------
---2---------2--0--2---------------------------------------0-----------------------
---0--0-2-3------------------------------------------------------------------------
G1           You've had your feast

---3---------------------------5-----5----5--3--5---5---5--------------------------
---0---------------3-----5-----3-----3----3--3--3---3---3--------------------------
---0---------4--2--4-----2-----2-----2----2--2--2---2---2--------------------------
---2--2-4-5--------4--0--2--0--0-----0----0--0--0---0---0--0-----------------------
---2---------------2---------------------------------------0-----------------------
---0-------------------------------------------------------------------------------
G2

-------------------7---------------------------------------------------------------
----------8-------------10----10-------------8-10----------------------------------
-------------------------------7---------------------------------------------------
-----------------------------------------------------------------------------------
-----------------------------------------------------------------------------------
-----------------------------------------------------------------------------------
Organ

---0-------------------------------------------------------------------------------
---0---------------------5-----3-----3----3--3--3---3---3--------------------------
---0---------------4-----2-----2---2-2----2--0--2---2---2--------------------------
---2---------------4--0--2--0--0-----0----0--0--0---0---0--------------------------
---2---------2--0--2---------------------------------------------------------------
---0--0-2-3------------------------------------------------------------------------
G1           You're wanting   more

---3---------------------------5-----5----5--3--5---5------------------------------
---0---------------3-----5-----3-----3----3--3--3---3------------------------------
---0---------4--2--4-----2-----2-----2----2--2--2---2---9--------------------------
---2--2-4-5--------4--0--2--0--0-----0----0--0--0---0------------------------------
---2---------------2---------------------------------------------------------------
---0-------------------------------------------------------------------------------
G2

-------------------7---------------------------------------------------------------
---5------8-------------10----10-------------8-10----------------------------------
-----------------------------------------------------------------------------------
-----------------------------------------------------------------------------------
-----------------------------------------------------------------------------------
-----------------------------------------------------------------------------------
Organ

--2---2-2-2---2-2-2---2-2--2--2--2--4---4-4-4---4-4-4---4-4--4--4--4---------------
--2---2-2-2---2-2-2---2-2--2--2--2--5---5-5-5---5-5-5---5-5--5--5--5---------------
--2---2-2-2---2-2-2---2-2--2--2--2--6---6-6-6---6-6-6---6-6--6--6--6---------------
--4---4-4-4---4-4-4---4-4--4--4--4--6---6-6-6---6-6-6---6-6--6--6--6---------------
--4---4-4-4---4-4-4---4-4--4--4--4--4---4-4-4---4-4-4---4-4--4--4--4---------------
--2---2-2-2---2-2-2---2-2--2--2--2-------------------------------------------------
G1                Follow the wayward mile             follow the distant

------------------------------------9----9--9----9--9-----9---9---9----------------
------10-10---10-10----10--10--10---9----9--9----9--9-----9---9---9----------------
-9/11-11-11---11-11----11--11--11---9----9--9----9--9-----9---9---9----------------
------11-11---11-11----11--11--11--11---11-11---11-11----11--11--11----------------
-------9--9----9--9-----9---9---9--11---11-11---11-11----11--11--11----------------
------------------------------------9----9--9----9--9-----9---9---9----------------
G2

---------14-16-14------------------16-------16---------------16--16----------------
--------------------------------------14-------------------------------------------
-----------------------------------------------------------------------------------
-----------------------------------------------------------------------------------
------16----------16---------------------------------------------------------------
-----------------------------------------------------------------------------------
Organ

---0---0-0-0---0-0-0---0-0--0--0--0--2---2-2-2---2-2--2---2-2-2---2-2--------------
---0---0-0-0---0-0-0---0-0--0--0--0--3---3-3-3---3-3--2---2-2-2---2-2--------------
---1---1-1-1---1-1-1---1-1--1--1--1--4---4-4-4---4-4--2---2-2-2---2-2--------------
---2---2-2-2---2-2-2---2-2--2--2--2--4---4-4-4---4-4--4---4-4-4---4-4--------------
---2---2-2-2---2-2-2---2-2--2--2--2--2---2-2-2---2-2--4---4-4-4---4-4--------------
---0---0-0-0---0-0-0---0-0--0--0--0-------------------2---2-2-2---2-2--------------
G1 High         follow the strangest tribe_________________________

---0---0-0-0---0-0-0---0-0--0--0--0--7---7-7-7---7-7-------------------------------
---0---0-0-0---0-0-0---0-0--0--0--0--7---7-7-7---7-7--10---10-10---10--------------
---1---1-1-1---1-1-1---1-1--1--1--1--7---7-7-7---7-7--11---11-11---11--------------
---2---2-2-2---2-2-2---2-2--2--2--2--9---9-9-9---9-9--11---11-11---11--------------
---2---2-2-2---2-2-2---2-2--2--2--2--9---9-9-9---9-9---9----9--9----9--------------
---0---0-0-0---0-0-0---0-0--0--0--0--7---7-7-7---7-7-------------------------------
G2

------------------------------16-14--14--------------------------------------------
----------------------------------------14-----------------------------------------
-----------------------------------------------------------------------------------
-----------------------------------------------------------------------------------
-----------------------------------------------------------------------------------
-----------------------------------------------------------------------------------
Organ

---4---4------------------------4---4----------------------------------------------
---5---5------------------------5---5----------------------------------------------
---6---6---3----3--3----3--3----6---6----------------------------------------------
---6---6---4----4--4----4--4----6---6----------------------------------------------
---4---4---4----4--4----4--4----4---4----------------------------------------------
-----------2----2--2----2--2-------------------------------------------------------
G1

---9---9------------------0h2---9---9----------------------------------------------
---9---9------------------------9---9----------------------------------------------
---9---9---3----3--3------------9---9----------------------------------------------
--11--11---4----4--4-----------11--11----------------------------------------------
--11--11---4----4--4-----------11--11----------------------------------------------
---9---9---2----2--2------------9---9----------------------------------------------
G2

--16--16-----------------------16-14-16--------------------------------------------
----------14-----------------------------------------------------------------------
-----------------------------------------------------------------------------------
-----------------------------------------------------------------------------------
-----------------------------------------------------------------------------------
-----------------------------------------------------------------------------------
Organ

-----------------------------4---4-4-4---4-4-4---4-4--4--4--4----------------------
-----------------------------5---5-5-5---5-5-5---5-5--5--5--5----------------------
--3---3--3---3--3---2--2--2--6---6-6-6---6-6-6---6-6--6--6--6----------------------
--4---4--4---4--4---4--4--4--6---6-6-6---6-6-6---6-6--6--6--6----------------------
--4---4--4---4--4---4--4--4--4---4-4-4---4-4-4---4-4--4--4--4----------------------
--2---2--2---2--2---2--2--2--------------------------------------------------------
G1        Follow the ancient stripe             follow the angels,

-----------------------------9----9--9----9--9-----9---9---9-----------------------
-10--10-10--10-10--10--10----9----9--9----9--9-----9---9---9-----------------------
-11--11-11--11-11--11--11----9----9--9----9--9-----9---9---9-----------------------
-11--11-11--11-11--11--11---11---11-11---11-11----11--11--11-----------------------
--9---9--9---9--9---9---9---11---11-11---11-11----11--11--11-----------------------
-----------------------------9----9--9----9--9-----9---9---9-----------------------
G2

-----------------------------------------------------------------------------------
-14--------------------------------------------------------------------------------
-----------------------------------------------------------------------------------
-----------------------------------------------------------------------------------
-----------------------------------------------------------------------------------
-----------------------------------------------------------------------------------
Organ

---0---0-0-0---0-0-0---0-0--0--0--0--2---2-2-2---2-2--2---2-2-2---2-2--------------
---0---0-0-0---0-0-0---0-0--0--0--0--3---3-3-3---3-3--2---2-2-2---2-2--------------
---1---1-1-1---1-1-1---1-1--1--1--1--4---4-4-4---4-4--2---2-2-2---2-2--------------
---2---2-2-2---2-2-2---2-2--2--2--2--4---4-4-4---4-4--4---4-4-4---4-4--------------
---2---2-2-2---2-2-2---2-2--2--2--2--2---2-2-2---2-2--4---4-4-4---4-4--------------
---0---0-0-0---0-0-0---0-0--0--0--0-------------------2---2-2-2---2-2--------------
G1 Try         follow the strangest tribe_________________________

---0---0-0-0---0-0-0---0-0--0--0--0--7---7-7-7---7-7-------------------------------
---0---0-0-0---0-0-0---0-0--0--0--0--7---7-7-7---7-7--10---10-10---10--------------
---1---1-1-1---1-1-1---1-1--1--1--1--7---7-7-7---7-7--11---11-11---11--------------
---2---2-2-2---2-2-2---2-2--2--2--2--9---9-9-9---9-9--11---11-11---11--------------
---2---2-2-2---2-2-2---2-2--2--2--2--9---9-9-9---9-9---9----9--9----9--------------
---0---0-0-0---0-0-0---0-0--0--0--0--7---7-7-7---7-7-------------------------------
G2

------------------------------16-14------------------------------------------------
---------------------------------------14------------------------------------------
------------------------------------13---------------------------------------------
---------------------------16------------------------------------------------------
-----------------------------------------------------------------------------------
-----------------------------------------------------------------------------------
Organ

---4---4------------------------4---4----------------------------------------------
---5---5------------------------5---5----------------------------------------------
---6---6---3----3--3----3--3----6---6---3----3--3----3--3-------3--3----3----------
---6---6---4----4--4----4--4----6---6---4----4--4----4--4-------4--4----4----------
---4---4---4----4--4----4--4----4---4---4----4--4----4--4-------4--4----4----------
-----------2----2--2----2--2------------2----2--2----2--2-------2--2----2----------
G1

---9---9------------------------9---9----------------------------------------------
---9---9------------------------9---9----------------------------------------------
---9---9---3----3--3----3--3----9---9---3----3--3----3--3-------3--3----3----------
--11--11---4----4--4----4--4---11--11---4----4--4----4--4-------4--4----4----------
--11--11---4----4--4----4--4---11--11---4----4--4----4--4-------4--4----4----------
---9---9---2----2--2----2--2----9---9---2----2--2----2--2-------2--2----2----------
G2

---------------------------------------------------16-14---------------------------
----------------------------14---------------------------14------------------------
-------------------------13--------------------------------------------------------
----------------------16-----------------------------------------------------------
-----------------------------------------------------------------------------------
-----------------------------------------------------------------------------------
Organ

---4---4------------------------4---4--------||
---5---5------------------------5---5--------||
---6---6---3----3--3----3--3----6---6---3----||
---6---6---4----4--4----4--4----6---6---4----||
---4---4---4----4--4----4--4----4---4---4----||
-----------2----2--2----2--2------------2----||
G1

---9---9------------------------9---9--------||
---9---9------------------------9---9--------||
---9---9---3----3--3----3--3----9---9---3----||
--11--11---4----4--4----4--4---11--11---4----||
--11--11---4----4--4----4--4---11--11---4----||
---9---9---2----2--2----2--2----9---9---2----||
G2



Quer fazer uma correção nesta cifra?







    Comentários (0) Postar um Comentário

    Nenhum comentário encontrado. Seja o primeiro!