Cifra da música: Release / Master / Slave - Pearl Jam

Esse cifra de Pearl Jam já foi acessado por 581 pessoas.

Comente

A música Release / Master / Slave fez muito sucesso quando foi gravada por Pearl Jam. Quer conhecer as demais músicas? Conheça as letras das músicas gravadas por Pearl Jam e aproveite.

Veja também o vídeo da música tocada.


 
From: Scott A. Yanoff 


> Intro (Repeat until the chorus)
> 
>    ---0-h-2-p-0-----------------0---------------3---0---
>    ---------------3-----------------3-------------------
>    -------------------2-----------------2---------------
>    ---0---------------------0---------------0-----------
>    -----------------------------------------------------
>    -----------------------------------------------------
> 
> Chorus
> 
>       D          Bm          C5    Asus4 D          Bm          C5
>    ---3----------2-----------0-----------3----------2-----------0------
>    ---3----------3-----------3-----------3----------3-----------3------
>    ---2----------2-----------2-----------2----------2-----------2------
>    ---0----------0-----------0-----------0----------0-----------0------
>    --------------------------------------------------------------------
>    --------------------------------------------------------------------
     ^^^^^^^^^^^^^^^^^^^^^^^^^^^^^^^^^^^^
    Someone correct me if I'm wrong but aren't these chords:
       Dsus4      D           Dsus2 ?
I tried to play the chords that were written and it does not sound right.

i see the world
feel the truth
which way to go
windowsill
i see the words  
on a rocking horse of time
i see the birds in the rain

oh dear diane
can you see me now
i am myself
like you somehow
i'll ride the wave
where it takes me
i'll hold the pain
release me

oh dear diane
can you see me now
i am myself
like you somehow
i'll wait up in the dark
for you to speak to me
i'll open up
release me
release me
release me
release me

Date: Thu, 28 Mar 1996 13:17:12 -0800
From: David Eichenstein 


                              Release by Pearl Jam
                                    (intro)
tabbed out by dave eichenstein ([email protected])

                                                                                
--------------------------------------------------------------------------------
--------------------------------------------------------------------------------
0-------------------------------------------------------------------------------
---2-----------2----------------------------------------------------------------
------3-----3-----3------------3------------------------------------------------
---------0-----------0--0h2p0---------------------------------------------------
                                                                                



================================================================================
==                           TABLATURE EXPLANATION                            ==
================================================================================

----------                            ----------
----5h8--- Hammeron                   ----(8)--- Ghost Note
----------                            ----------
----5p8--- Pulloff                    ----------

----------                            ----------
----5/8--- Slide Up                   -----x---- Dead Note
----------                            ----------
----58--- Slide Down                 ----------

----------                            ||------|| Repeat Start & End
----5~~~-- Vibrato                    ||*----*||
----------                            ||*----*||
----------                            ||------||

Rhythm:
  w = whole note            W = dotted whole
  h = half note             H = dotted half
  q = quarter note          Q = dotted quarter
  e = eighth note           E = dotted eighth
  s = sixteenth note        S = dotted sixteenth
  ^ = triplet


Quer fazer uma correção nesta cifra?







    Comentários (0) Postar um Comentário

    Nenhum comentário encontrado. Seja o primeiro!