Cifra da música: Rearviewmirror - Pearl Jam

Esse cifra de Pearl Jam já foi acessado por 561 pessoas.

Comente

A música Rearviewmirror fez muito sucesso quando foi gravada por Pearl Jam. Quer conhecer a letra dela? Veja a letra de Rearviewmirror e cante.

Veja também o vídeo da música tocada.


intro:
|---------------------------------------------------------------------
|---------------------------------------------------------------------
|---------------------------------------------------------------------
|-------------------do this several times-----------------------------
|---0-5-0-5h7-------------------------guitar two comes in with--------
|-5-----------0-0---------------------distortion playing the same riff

verse same as intro with following:

|---------------------------------------------------------------------
|---------------------------------------------------------------------
|---------------------------------------------------------------------
|--------------------both guitars-------------------------------------
|---0-7---7h9---------------------------------------------------------
|-7-----7------0-0----------------------------------------------------

chorus:
|-2-2-2-2-2-2-2-2-2-2-2-2-2-2-2/4-4--3-3-3-3-3-3-3-3-3-3-3-3-3-3-3/5-5
|-3-3-3-3-3-3-3-3-3-3-3-3-3-3-3/5-5--3-3-3-3-3-3-3-3-3-3-3-3-3-3-3/5-5
|-4-4-4-4-4-4-4-4-4-4-4-4-4-4-4/6-6--4-4-4-4-4-4-4-4-4-4-4-4-4-4-4/6-6
|-4-4-4-4-4-4-4-4-4-4-4-4-4-4-4/6-6--5-5-5-5-5-5-5-5-5-5-5-5-5-5-5/7-7
|-2-2-2-2-2-2-2-2-2-2-2-2-2-2-2/4-4--5-5-5-5-5-5-5-5-5-5-5-5-5-5-5/7-7
|------------------------------------3-3-3-3-3-3-3-3-3-3-3-3-3-3-3/5-5

|-2-2-2-2-2-2-2-2-2-2-2-2-2-2-2------3-3-3-3-3-3-3-3-3-3-3-3-3-3-3----
|-2-2-2-2-2-2-2-2-2-2-2-2-2-2-2------3-3-3-3-3-3-3-3-3-3-3-3-3-3-3----
|-3-3-3-3-3-3-3-3-3-3-3-3-3-3-3------4-4-4-4-4-4-4-4-4-4-4-4-4-4-4----
|-4-4-4-4-4-4-4-4-4-4-4-4-4-4-4------5-5-5-5-5-5-5-5-5-5-5-5-5-5-5----
|-4-4-4-4-4-4-4-4-4-4-4-4-4-4-4------5-5-5-5-5-5-5-5-5-5-5-5-5-5-5----
|-2-2-2-2-2-2-2-2-2-2-2-2-2-2-2-0-1--3-3-3-3-3-3-3-3-3-3-3-3-3-3-3----

then strum A in couplets (you know...du du....du du  nevermind)
while struming A, start playing intro riff-this is the second verse!

chorus w/ this fill that Mike plays second time around:
|--------12-14-----------12-14-----------12-14------------------------
|-12-12-----------12-12------------12-12-------12-12-12-14-14b-14-----
|---------------------------------------------------------------------
|---------------------------------------------------------------------
|---------------------------------------------------------------------
|---------------------------------------------------------------------

|---------------------------------------------------------------------
|-12-14b----14~~~~----------------------------------------------------
|---------------------------------------------------------------------
|---------------------------------------------------------------------
|---------------------------------------------------------------------
|---------------------------------------------------------------------

interlude (slower):
|---------------------------------------------------------------------
|---------------------------------------------------------------------
|---------------------------------------------------------------------
|---------------------------------------------------------------------
|---------------------------------------------------------------------
|-3--7b--5----3--7b--5------------------------------------------------
|both guitars start strumming D right here.

D
'Saw things.....saw things...saw things...saw things...saw things
Bm
clearer...clearer'
then chorus with fill mentioned earlier

Bm A till end of song


Quer fazer uma correção nesta cifra?







    Comentários (0) Postar um Comentário

    Nenhum comentário encontrado. Seja o primeiro!