Cifra da música: Pry, To - Pearl Jam

Esse cifra de Pearl Jam já foi acessado por 507 pessoas.

Comente

A música Pry, To fez muito sucesso quando foi gravada por Pearl Jam. Quer conhecer a letra dela? Veja a letra de Pry, To e cante.

Veja também o vídeo da música tocada.


if you turn it up loud, you can hear this at the beginning:
|--------------------------------------------------8------------------
|--------------------------------------------------8------------------
|-0--2-3-3-5-7-5-----------------------------------9------------------
|----------------while another guitar plays this---10-----------------
|---------------------------------------------------------------------
|---------------------------------------------------------------------

next:
guitar one:
|--7-7-7-6-5-4-3---7-7-7-6-5-4-3---7-7-7-6-5-4-3----------------------
|---------------------------------------------------------------------
|---------------------------------------------------------------------
|---------------------------------------------------------------------
|---------------------------------------------------------------------
|---------------------------------------------------------------------
|guitar two:
|---------------------------------------------------------------------
|---------------------------------------------------------------------
|---------------------------------------------------------------------
|--14-15-17-15-14-12-----14-15-17-15-14-12----------------------------
|--------------------14--------------------14-------------------------
|---------------------------------------------------------------------



Quer fazer uma correção nesta cifra?







    Comentários (0) Postar um Comentário

    Nenhum comentário encontrado. Seja o primeiro!