Cifra da música: Porch - Pearl Jam

Esse cifra de Pearl Jam já foi acessado por 768 pessoas.

Comente

A música Porch fez muito sucesso quando foi gravada por Pearl Jam. Quer conhecer a letra dela? Veja a letra de Porch e cante.

Veja também o vídeo da música tocada.


 
Verse:


-----------------------------------------
----------------x--5---5-----------------
--2----2--------x--5---5-------0---0-----
--2----2-----------5---5-------0---0-----
--0----0---------------------------------
-----------------------------------------
       what the f- is    this world


-----------------------------------------
--2-----------5---5---5----5---0---------
--2---2-------5---5---5----5---0---------
--2---2-------5---5---5----5-------------
------0----------------------------------
-----------------------------------------
     running to      you  didn't

etc....
follow same pattern and listen for rhythm


Chorus/Bridge:



---------------------------------------------------------------
---------------------------------------------------------------
---------------------------------------------------------------
--5-------5------5--5--5--5---7-------7--7--7--7---8------8----
--5-------5------5--5--5--5---7-------7--7--7--7---8------8----
--3-------3------3--3--3--3---5-------5--5--5--5---6------6----



---------------------------------------------------------------
---------------------------------------------------------------
---------------------------------------------------------------
---7----7--7--7--7---5----5--5--5--5----7----7--7--7--7--------
---7----7--7--7--7---5----5--5--5--5----7----7--7--7--7--------
---5----5--5--5--5---3----3--3--3--3----5----5--5--5--5--------



---------------------------------------------------------------
---------------------------------------------------------------
---------------------------------------------------------------
---8----8--8--8--8-----10-10-10-10-10-10-10-10-----------------
---8----8--8--8--8-----10-10-10-10-10-10-10-10-----------------
---6----6--6--6--6-----8--8--8--8--8--8--8--8------------------


Quer fazer uma correção nesta cifra?







    Comentários (0) Postar um Comentário

    Nenhum comentário encontrado. Seja o primeiro!