Cifra da música: Once - Pearl Jam

Esse cifra de Pearl Jam já foi acessado por 609 pessoas.

Comente

A música Once fez muito sucesso quando foi gravada por Pearl Jam. Quer conhecer a letra dela? Veja a letra de Once e cante.

Veja também o vídeo da música tocada.


 
|-3--3-3--3--1----1--1---1---1--1--1--1--1--1--0-----0--0---1---1----|
|-3--3-3--3--3----3--3---3---3--3--3--3--3--3--3-----3--3---3---3----|
|-2--2-2--2--2----2--2---2---2--2--2--2--2--2--2-----2--2---2---2----|
|-0--0-0--0--0----0--0---0---0--0--0--0--0--0--0-----0--0---0---0----|
|--------------------------------------------------------------------|
|--------------------------------------------------------------------|
repeat once

verse:
|--------------------------------------------------------------------|
|------------------------------------repeat this---------------------|
|------------0h2p0h3--2h3p2------7------through verses--------------|
|--------------------------------------------------------------------|
|53/5---------------------------------------------------------------|
|--------------------------------------------------------------------|

pre-chous:
|------------------------------|--------------------------------------
|------------------------------|--------------------------------------
|--2---2h3p2h3p2h3p2h3p2h3p2---|----3---3-3---------------------------
|--2---------------------------|----3---3-3---------------------------
|--0------------------three----|----1---1-1---------------------------
|------------------------times-|--------------------------------------

Chorus
  ---3----3---3---3-------1------1----1----1---1----1------0-----0----
  ---3----3---3---3-------3------3----3----3---3----3------3-----3----
  ---0----0---0---0-------0------0----3----3---3----3------3-----3----
  ---0----------------------------------------------------------------
  --------------------------------------------------------------------
  --------------------------------------------------------------------

  ---3----3---3----3------1----1----1----1--1----1-------0-----0------
  ---3----3---3----3------3----3----3----3--3----3-------3-----3------
  ---0----0---0----0------0----0----3----3--3----3-------3-----3------
  --------------------------------------------------------------------
  --------------------------------------------------------------------

------------------------------------------------------------------------------

verse

solo: F (also Dm)
|-------------------------------|-----------5-------------------------
|--8b---8b-8-5------------------|----------5-8p5----------------------
|--------------7p5-7bp5---5h7-5-|-5s4----7b------7bp5---7-5-----------
|-----------------------7-------|-----5---------------7-----7-5-------
|-------------------------------|-------------------------------7-5b--
|-------------------------------|-------------------------------------

|---------------------------|-20b--20b-20b-20br-17----17--------------
|---------------------------|----------------------20----20b----------
|---------------------------|-----------------------------------------
|---------------------------|-----------------------------------------
|-5--3--5-5b-5-3---3-3-3-3~-|-----------------------------------------
|----------------5----------|-----------------------------------------

|--------0-|-------------8-----8----8----8-10-10bp8-10----------------
|-0-0-5--0-|----8---8h10---10~---10---10------------------------------
|-0-0-5--0-|-9----9---------------------------------------------------
|----------|----------------------------------------------------------
|----------|----------------------------------------------------------
|----------|----------------------------------------------------------

|---------------------------------------------------------------------
|--8-8-8-8-6p0--------------------------------------------------------
|--7-7-7-7-----6--5---play this several times-------------------------
|---------------------------------------------------------------------
|---------------------------------------------------------------------
|---------------------------------------------------------------------


Outro
---3---3--3---------|------------0----0--0-----0----0--0--0--0--0--0-
---3---3--3---------|------------6----6--6--/--8----8--8--8--8--8--8-
---0---0--0----6-5--|----0-------7----7--7--/--9----9--9--9--9--9--9-
---0---0--0---------|----0-------------------------------------------
--------------------|------------------------------------------------
--------------------|-------------------------------------------------

(repeat twice)

-----------------------|----------------------------------------------
---3-----3--3--8-/-10--|---8-------------3------3--3--8/10------------
---0-----0--0----------|----------0------0------0--0----------------0-
---0-----0--0----------|----------0------0------0--0----------------0-
-----------------------|----------------------------------------------
-----------------------|----------------------------------------------

------------------------|------------------0---0---0--------0------3--
------------------------|------------------6---6---5--------5------3--
------------------------|------------------7---7---5--------5------0--
------------------------|------------------------------------------0--
------------------------|---------------------------------------------
------------------------|------------------------------------------3--

|-3--3-3--3--1----1--1---1---1--1--1--1--1--1--0-----0--0---1---1----|
|-3--3-3--3--3----3--3---3---3--3--3--3--3--3--3-----3--3---3---3----|
|-2--2-2--2--2----2--2---2---2--2--2--2--2--2--2-----2--2---2---2----|
|-0--0-0--0--0----0--0---0---0--0--0--0--0--0--0-----0--0---0---0----|
|--------------------------------------------------------------------|
|--------------------------------------------------------------------|
repeat once

verse:
|--------------------------------------------------------------------|
|------------------------------------repeat this---------------------|
|------------0h2p0h3--2h3p2------7------through verses--------------|
|--------------------------------------------------------------------|
|53/5---------------------------------------------------------------|
|--------------------------------------------------------------------|

pre-chous:
|------------------------------|--------------------------------------
|------------------------------|--------------------------------------
|--2---2h3p2h3p2h3p2h3p2h3p2---|----3---3-3---------------------------
|--2---------------------------|----3---3-3---------------------------
|--0------------------three----|----1---1-1---------------------------
|------------------------times-|--------------------------------------

Chorus
  ---3----3---3---3-------1------1----1----1---1----1------0-----0----
  ---3----3---3---3-------3------3----3----3---3----3------3-----3----
  ---0----0---0---0-------0------0----3----3---3----3------3-----3----
  ---0----------------------------------------------------------------
  --------------------------------------------------------------------
  --------------------------------------------------------------------

  ---3----3---3----3------1----1----1----1--1----1-------0-----0------
  ---3----3---3----3------3----3----3----3--3----3-------3-----3------
  ---0----0---0----0------0----0----3----3--3----3-------3-----3------
  --------------------------------------------------------------------
  --------------------------------------------------------------------
  ------------------------------------------------------------------------------
verse

solo: F (also Dm)
|-------------------------------|-----------5-------------------------
|--8b---8b-8-5------------------|----------5-8p5----------------------
|--------------7p5-7bp5---5h7-5-|-5s4----7b------7bp5---7-5-----------
|-----------------------7-------|-----5---------------7-----7-5-------
|-------------------------------|-------------------------------7-5b--
|-------------------------------|-------------------------------------

|---------------------------|-20b--20b-20b-20br-17----17--------------
|---------------------------|----------------------20----20b----------
|---------------------------|-----------------------------------------
|---------------------------|-----------------------------------------
|-5--3--5-5b-5-3---3-3-3-3~-|-----------------------------------------
|----------------5----------|-----------------------------------------

|--------0-|-------------8-----8----8----8-10-10bp8-10----------------
|-0-0-5--0-|----8---8h10---10~---10---10------------------------------
|-0-0-5--0-|-9----9---------------------------------------------------
|----------|----------------------------------------------------------
|----------|----------------------------------------------------------
|----------|----------------------------------------------------------

|---------------------------------------------------------------------
|--8-8-8-8-6p0--------------------------------------------------------
|--7-7-7-7-----6--5---play this several times-------------------------
|---------------------------------------------------------------------
|---------------------------------------------------------------------
|---------------------------------------------------------------------


Outro
---3---3--3---------|------------0----0--0-----0----0--0--0--0--0--0-
---3---3--3---------|------------6----6--6--/--8----8--8--8--8--8--8-
---0---0--0----6-5--|----0-------7----7--7--/--9----9--9--9--9--9--9-
---0---0--0---------|----0-------------------------------------------
--------------------|------------------------------------------------
--------------------|-------------------------------------------------

(repeat twice)

-----------------------|----------------------------------------------
---3-----3--3--8-/-10--|---8-------------3------3--3--8/10------------
---0-----0--0----------|----------0------0------0--0----------------0-
---0-----0--0----------|----------0------0------0--0----------------0-
-----------------------|----------------------------------------------
-----------------------|----------------------------------------------

------------------------|------------------0---0---0--------0------3--
------------------------|------------------6---6---5--------5------3--
------------------------|------------------7---7---5--------5------0--
------------------------|------------------------------------------0--
------------------------|---------------------------------------------
------------------------|------------------------------------------3--

_______________________________________
Gentilmente enviada por:
Eddie San ([email protected])


Quer fazer uma correção nesta cifra?







    Comentários (0) Postar um Comentário

    Nenhum comentário encontrado. Seja o primeiro!