Cifra da música: Love Boat Captain - Pearl Jam

Esse cifra de Pearl Jam já foi acessado por 877 pessoas.

Comente

A música Love Boat Captain fez muito sucesso quando foi gravada por Pearl Jam. Quer conhecer a letra dela? Veja a letra de Love Boat Captain e cante.

Veja também o vídeo da música tocada.


intro and verse:
----------------------------------------------
----------------------------------------------
-0--0-0-0--0--0-0-0---------------------------
-2--2-2-2--1--1-1-1---5---5-5-5---3---3-3-3---
-3--3-3-3--3--3-3-3---5---5-5-5---3---3-3-3---
----------------------3---3-3-3---1---1-1-1---
                                                                              
                                                                           
Love boat captain...
----------------------------------------------
----------------------------------------------
--9-9-9---12-12--12-12---9-9---12-12--12-12---
--9-9-9---12-12--12-12---9-9---12-12--12-12---
--7-7-7---10-10---9--9---7-7---10-10---9--9---
----------------------------------------------

-----------------
-----------------
--12-12--12-12---
--12-12--12-12---
--10-10---9--9---

Bridge:
-------------------------------
-------------------------------
------0--------------2---------
--------0---0------3-----------
----------2------3-------------
---------------1---------------



chorus:
 C , Cm , G , F (3X)
  

 A            C         G           F
Hold me, and make it the truth

      A           C           G          F
That when all is lost there will be you
           
             A               C
Cause to the universe I don't mean a thing

             A               C    
And there's just one world I still believe , 


And it's love

---------------------------------------------------
---------------------------------------------------
------------------------------------------3-3-3----
------0-2---2-------0-2---2------0-2---2--3-3-3----
----3-----3-------3-----3------3-----3----1-1-1----
--1-------------1------------1---------------------


----------------------------------
-----13--15--13-15-13-------------
--------------------------3-3-3---
--------------------------3-3-3---
--------------------------1-1-1---
----------------------------------



chorus:
 C , Cm . G . F (3X)


And the young they can lose ....
------------------------------------------------
------------------------------------------------
--9-9-9---12-12--12-12---9-9-9---12-12--12-12---
--9-9-9---12-12--12-12---9-9-9---12-12--12-12---
--7-7-7---10-10---9--9---7-7-7---10-10---9--9---
------------------------------------------------

---------------------------------------
---------------------------------------
--9-9-9---12-12--12-12--12-12--12-12---
--9-9-9---12-12--12-12--12-12--12-12---
--7-7-7---10-10---9--9--10-10---9--9---
---------------------------------------



Bridge:



Hold me and make is the truth....

...and it's love , love , love , love , love





Quer fazer uma correção nesta cifra?







    Comentários (0) Postar um Comentário

    Nenhum comentário encontrado. Seja o primeiro!