Cifra da música: Light Years - Pearl Jam

Esse cifra de Pearl Jam já foi acessado por 582 pessoas.

Comente

A música Light Years fez muito sucesso quando foi gravada por Pearl Jam. Quer conhecer a letra dela? Veja a letra de Light Years e cante.

Veja também o vídeo da música tocada.


|----------------------------------------------------------------------------------------|
|----------------------------------------------------------------------------------------|
|-------------------------------------------7-7--7---7-7---7-7-7-7--7-7--7-7-7-7-7-7-----|
|-4---4-4-4---4--4----4-4--4---4--4---4---4-4-4--4---4-4---4-4-4-4--4-4--4-4-4-4-4-4--0--|
|-5-5-5-5-5-5-5--5-5--5-5--5-5-5--5-5-5-5-5-5-5--5-5-5-5-5-5-5-5-5--5-5--5-5-5-5-5-5--0--|
|----------------------------------------------------------------------------------------|

 Gtr.1                                                      With Fill 1
|----------------------------------------------------------------------------------------|
|----------------------------------------------------------------------------------------|
|----------------------------------------------------------------------------------------|
|----12^---12^------12^-12^-12^-------12^------12^-12^----------12^----12^---12^--12^--|
|----------------------------------------------------------------------------------------|
|----------------------------------------------------------------------------------------|

 Gtr.3
|--0----------|
|----3--------|
|-------------|
|-------------|
|-------------|
|-------------|
  Fill 1 Gtr.2

Verse
|-----2--2--2--0-----0--|---------------------0--|--0----------0---0-----|---
|-----3--3--3--3-------3|----3------3-----3---3--|--3---2-2--2-2---2-----|---
|-----2--2--2-----0-----|0---0--0---0--0--0---0--|--0---0-0--0-0---0-----|---
|-----0--0--0-----0-----|----0--0---0--0--0---0--|------3-3--3-----3-----|---
|-----------------1-----|----1--1---3--3--3------|------4-4--4-----------|---
|-----------------------|------------------------|-----------------------|---

Gtr.1 I've used hammers made out of wood, I have played games with
pieces
|-----2-----------0-----|-----------0------------|------0----------------|---
|-----3-----------3-----|-----------3------------|------2----------------|---
|-----2-----------0-----|-----------0------------|------0----------------|---
|-----0-----------0-----|-----------0------------|------3----------------|---
|-----------------1-----|-----------3------------|------4----------------|---
|-----------------------|------------------------|-----------------------|---

Gtr.2

|---------2----2-3-2--0-|-----------0------------|--------0-0--0--0------|---
|------2--3----3-3-3----3-----3--3----3-----3----|--3--3--3-3--3--3----2-|---
|------0--2----2-2-2----|-0---0--0------0---0----|--0--0--0-0--0-------0-|---
|------3--0----0-0-0----|-----0-------------0---0|--0--0--0-0----------3-|---
|------4----------------|-----1-----------------3|--3--3--3-3----------4-|---
|-----------------------|------------------------|-----------------------|---

 Gtr.1 Of rules, I have deciphered tricks at the bar    but now you're
gone
|---------2-------------|-----0-----------------0|-----------------------|---
|---------3-------------|-----3-----------------3|---------------------2-|---
|---------2-------------|-----0-----------------0|---------------------0-|---
|---------0-------------|-----0-----------------0|---------------------3-|---
|-----------------------|-----1-----------------3|---------------------4-|---
|-----------------------|------------------------|-----------------------|---

 Gtr.2

|----------0-0---0-0----|-------2---2-2--------2-|---------------0--0----|---
|-----2-2--2-2---2-2--2-|----3--3---3-3-----3--3-|------------3--3--3-3--|---
|-----0-0--0-0---0-0--0-|-0--2--0h2-2-0h2---2--2-|-0-0--0--0--0--0--0-0--|---
|-----3-3--3-3---3-3--3-|-3--0--0---0-0---0-0--0-|-0-0--0--0--0--0--0----|---
|-----4-4--------4-4--4-|-4----------------------|---1--------1--1--1----|---
|-----------------------|------------------------|-----------------------|---

 Gtr.1 I haven't figured out why,  I've come out with riddles and jokes
|-----------------------|----2-------------------|---0-------------------|---
|-----------------------|----3-------------------|---3-------------------|---
|-----------------------|----2-------------------|---0-------------------|---
|-----------------------|----0-------------------|---0-------------------|---
|-----------------------|------------------------|---1-------------------|---
|-----------------------|------------------------|-----------------------|---

 Gtr.2

|--------0--------------|-----0------------------|----------2------------|---
|-----3--3---------3-3--|-----3--3---2--2-2--2-2-|-2-2------3------------|---
|-----0--0--0--0---0-0--|-----0----0-0--0-0--0-0-|-0-0--0---2------------|---
|-----0--0--0--0--------|-0---0------3--3-3--3-3-|-3-3--3---0------------|---
|--------1--3--3--------|-3---3------4--4-4--4-4-|-4-4-------------------|---
|-----------------------|------------------------|-----------------------|---

Gtr.1 About words   I've figured out numbers and what they're for
|-----------0-----------|------------0-----------|-----------2-----------|---
|-----------3-----------|------------2-----------|-----------3-----------|---
|-----------0-----------|------------0-----------|-----------2-----------|---
|-----------0-----------|------------3-----------|-----------0-----------|---
|-----------3-----------|------------4-----------|-----------------------|---
|-----------------------|------------------------|-----------------------|---

Gtr.2

|-----2------0------0---|------------------------|--------0-0----0-------|---
|-----3--3---3---3--3---|--3--3----3-3-----3-3---|-3--3---3-3----3---3---|---
|-----2--0h2-0h2-0--0-0-|--0--0----0-0-0---0-0---|-0--0---0-0--0-0---0---|---
|-----0--0---0---0--0-0-|--0--0----0-0-0---0-0---|-0--0---0-0--0-0---0---|---
|---------------------1-|--1--1----1-1-1---------|-3--3---3-3--3-3---3---|---
|-----------------------|------------------------|-----------------------|---

Gtr.1 I've understood feelings and I've understood words but how could
you
|---------------------0-|------------------------|-0---------------------|---
|---------------------3-|------------------------|-3---------------------|---
|---------------------0-|------------------------|-0---------------------|---
|---------------------0-|------------------------|-0---------------------|---
|---------------------1-|------------------------|-3---------------------|---
|-----------------------|------------------------|-----------------------|---

 Gtr.2

|-----------------------|------------------------|-----------------------|---
|-----2--2-2-------2-2-2|------------------------|-----------------------|---
|-----0--0-0----0--0-0-0|------------------------|-----------------------|---
|-----3--3-3--3-3--3-3-3|------------------------|-----------------------|---
|-----4--4-4--4-4--4-4-4|------------------------|-----------------------|---
|-----------------------|------------------------|-----------------------|---

 Gtr.1 Taken  away
|-----------------------|------------------------|-----------------------|---
|------------------2-2-2|------------------------|-----------------------|---
|------------------0-0-0|------------------------|-----------------------|---
|------------------3-3-3|------------------------|-----------------------|---
|------------------4-4-4|------------------------|-----------------------|---
|-----------------------|------------------------|-----------------------|---

 Gtr.2

-|-------0--------0------|---0-0------------------|-----0---0---0---0---0-|---
-|-----2-2-2--3-2-2-2--3-3h5-2-2-2-2---3-2-2-2--3-|2--3-3-3-3-3-3-3-3-3-3-|---
-|-----2-2-2--2-2-2-2--2-2---2-2-2-2---2-2-2-2--2-|2--2-2-2-2-2-2-2-2-2-2-|---
-|-----0-0-0--0-0-0-0--0-0---0-0-0-0---0-0-0-0--0-|---0-0-0-0-0-0-0-0-0-0-|---
-|-----------------------|------------------------|---2-2-2-2-2-2-2-2-2-2-|---
-|-----------------------|------------------------|-----------------------|---

 Gtr.1 And wherever your gone, and wherever we might go           it
don't

-|-----------------------|------------------------|-----------------------|---
-|-----------------------|------------------------|-----------------------|---
-|-----7---7--7---7-7--7-|-----7-7-------7-------7|-----------------------|---
-|-----4---4--4-0-4-4--4-|4----4-4-------4-4---4-4|0--0-0-0-0-0-0-0-0-0-0-|---
-|-----5-5-5--5-5-5-5--5-|5--5-5-5-5---5-5-5-5-5-5|5--2-2-2-2-2-2-2-2-2-2-|---
-|-----------------------|------------------------|-----------------------|---

 Gtr.2

-|-------0-0--0-0---0-0--|------------------------|-----------------------|---
-|-----3-3-3--3-3-3-3-3-3|------------------------|-----------------------|---
-|-----2-2-2--2-2-2-2-2-2|------------------------|-----------------------|---
-|-----0-0-0--0-0-0-0-0-0|------------------------|-----------------------|---
-|-----0-0-0--0-0-0-0-0-0|------------------------|-----------------------|---
-|-----------------------|------------------------|-----------------------|---

 Gtr.1 Fair,    today just disappeared

-|-----------------------|------------------------|-----------------------|---
-|-----------------------|------------------------|-----------------------|---
-|-----------------------|------------------------|-----------------------|---
-|-----0-0-0--0-0-0-0-0-0|------------------------|-----------------------|---
-|-----0-0-0--0-0-0-0-0-0|------------------------|-----------------------|---
-|-----------------------|------------------------|-----------------------|---

 Gtr.2

-|-----2-3-2-0-----------|---------------2-3-2-0--|-----------------------|---
-|--3--3-3-3-3-3---------|---------------3-3-3-3-3|-----------------------|---
-|--2--2-2-2-2---0------0|----0---0---2--2-2-2----|0----------------------|---
-|--0--0-0-0-0--------0--|--0---0-----0--0-0-0----|---0-------------------|---
-|------------------1----|3-----------------------|---1-------------------|---
-|-----------------------|------------------------|-----------------------|---

 Gtr.1

-|-----2-----------------|---------------2-3-2-0--|-----------------------|---
-|-------3---------------|-----------------------3|-----------------------|---
-|---------2-----------0-|----0-------------------|0----------------------|---
-|--0--------0--0----0---|--0---0-----0-----------|-----------------------|---
-|------------------1----|3-------3---------------|---1-------------------|---
-|-----------------------|------------------------|-----------------------|---

 Gtr.2

-|---2-------------------|------------------------|-----------------------|---
-|---3--3--3-----5--5--5-|-0--5--5-5-5-5-5--5-5--5|-5-5-5--5-5-5----------|---
-|---2--2--2--0--6--6--6-|-6--6--7-7-7-7-7--7-6--9|-9-9-9--9-9-9----------|---
-|---0--------0--7-------|-7--7--7-7-7-7-7--7-7--7|-7-7-7--7-7-7----------|---
-|---------------0-------|----0--0---0-0----0-0---|-0-0----0-0-0----------|---
-|-----------------------|------------------------|-----------------------|---

 Bridge Gtr.1

-|--2--------------------|-------0-0-0-0-0--0-----|-----------------------|---
-|--3--3--3-----2--2--2--|-0--2--3-3-3-3-3--3-2--5|-5-5-5--5-5-5----------|---
-|--2--2--2--0--2--2--2--|-2--2--2-2-2-2-2--2-2--2|-2-2-2--2-2-2----------|---
-|--0--------0--2--------|-2--2--2-2-2-2-2--2----2|-2-2-2--2-2-2----------|---
-|--------------0--------|-0--0--0-0-0-0-0-------0|-0-0-0--0-0-0----------|---
-|-----------------------|------------------------|-----------------------|---

 Gtr.2

-|-------------5--5--0---|--3-3--3-3-3-3--2-2-2-2-|-2-2-2-2---------------|---
-|-------8--7--7--7--5--5|--5-5--5-5-5-5--4-4-4-4-|-4-4-4-4---------------|---
-|-------6--6--6--6--6--5|--5-5--5-5-5-5--4-4-4-4-|-4-4-4-4---------------|---
-|--7-7--7--7--7--------7|--5-5--5-5-5-5--4-4-4-4-|-4-4-4-4---------------|---
-|--0-0--0--0--0--------0|--3-3--3-3-3-3--2-2-2-2-|-2-2-2-2---------------|---
-|-----------------------|------------------------|-----------------------|---

 Gtr.1


-|-------3--2--2--2--0--0|------------------------|-----------------------|---
-|-------2--2--2--2--2--2|--1-1--1-1-1-1----------|-----------------------|---
-|-------2--2--2--2--2--2|--0-0--0-0-0-0--4-4-4-4-|-4-4-4-4---------------|---
-|--2-2--2--2--2--2--2--2|--2-2--2-2-2-2--4-4-4-4-|-4-4-4-4---------------|---
-|--0-0--0--0--0--0--0--0|--3-3--3-3-3-3--2-2-2-2-|-2-2-2-2---------------|---
-|-----------------------|------------------------|-----------------------|---

 Gtr.2

-|-------------5--5--0---|--3-3--3-3-3-3--2-2-2-2-|-2-2-2-2---------------|---
-|-------8--7--7--7--5--5|--5-5--5-5-5-5--4-4-4-4-|-4-4-4-4---------------|---
-|-------6--6--6--6--6--5|--5-5--5-5-5-5--4-4-4-4-|-4-4-4-4---------------|---
-|--7-7--7--7--7--------7|--5-5--5-5-5-5--4-4-4-4-|-4-4-4-4---------------|---
-|--0-0--0--0--0--------0|--3-3--3-3-3-3--2-2-2-2-|-2-2-2-2---------------|---
-|-----------------------|------------------------|-----------------------|---

 Gtr.1

-|-----------------------|------------------------|-----------------------|---
-|-----------------------|-----------8----7-------|-7---------------------|---
-|-----------------------|--------9-----------8---|------9-v-v-v-v---vvv--|---
-|-----------------------|-----10----------------9|-----------------------|---
-|-----------------------|------------------------|-----------------------|---
-|-----------------------|--8---------------------|-----------------------|---

 Gtr.2

-|-------------5--5--0---|--3-3--3-3-3-3--2-2-2-2-|-2-2-2-2---------------|---
-|-------8--7--7--7--5--5|--5-5--5-5-5-5--4-4-4-4-|-4-4-4-4---------------|---
-|-------6--6--6--6--6--5|--5-5--5-5-5-5--4-4-4-4-|-4-4-4-4---------------|---
-|--7-7--7--7--7--------7|--5-5--5-5-5-5--4-4-4-4-|-4-4-4-4---------------|---
-|--0-0--0--0--0--------0|--3-3--3-3-3-3--2-2-2-2-|-2-2-2-2---------------|---
-|-----------------------|------------------------|-----------------------|---

 Gtr.1

-|-----------------------|------------------------|-----------------------|---
-|-----------------------|-----------8----7-------|-----------------------|---
-|-9vv--9vvvvv-9vv-9vvv-|---------9--------8--9b11-9b11r9p8--------------|---
-|-----------------------|-----10-----------------|-----------------------|---
-|-----------------------|------------------------|-----------------------|---
-|-----------------------|-/8---------------------|-----------------------|---

 Gtr.2

-|--3-3-3-3-3-3-3--2-2-2-|2-2-2-2-2---3-3-3-3-3--3|-3-3-3-3-3---3-3-3-3---|---
-|--5-5-5-5-5-5-5--4-4-4-|4-4-4-4-4---5-5-5-5-5--5|-5-5-5-5-5---5-5-5-5---|---
-|--5-5-5-5-5-5-5--4-4-4-|4-4-4-4-4---5-5-5-5-5--5|-5-5-5-5-5---5-5-5-5---|---
-|--5-5-5-5-5-5-5--4-4-4-|4-4-4-4-4---5-5-5-5-5--5|-5-5-5-5-5---5-5-5-5---|---
-|--3-3-3-3-3-3-3--2-2-2-|2-2-2-2-2---3-3-3-3-3--3|-3-3-3-3-3---3-3-3-3---|---
-|-----------------------|------------------------|-----------------------|---

 Gtr.1

-|-----------------------|------------------------|---15----15-15-15-15---|---
-|--13-13-10-12-13-10b12r10p8-10---8--13-13-10-12-13--15b17-17-17-17-17v--|---
-|-----------------------|------7h9---------------|-----------------------|---
-|-----------------------|------------------------|-----------------------|---
-|-----------------------|------------------------|-----------------------|---
-|-----------------------|------------------------|-----------------------|---

 Gtr.2                                                Hold Bend-------|

-|---------------------------|----------------------------------------------|-
-|---------------------------|----------------------------------------------|-
-|--12-12--11-11-115-5-5-5--|--5-5-5-9-9-5--5-5-5--5-9-9-5--5-5-5-5/7-7-7--|-
-|--x--x---x--x--x--x-x-x-x--|--x-x-x-x-x-x--x-x-x--x-x-x-x--x-x-x-x-x-x-x--|-
-|--10-10--9--9--9-3-3-3-3--|--3-3-3/7-73--3-3-3--3/7-73--3-3-3-3/5-5-5--|-
-|---------------------------|----------------------------------------------|-

 Gtr.2's Outro Octave Run  2x

-|--------------------------------------------------------------------------|-
-|--------------------------------------------------------------------------|-
-|--12-12--11-11-11-5-5--5-5-5--5---12-12-12-12--11-11-11-11-11-11-11-11-11-|-
-|--x--x---x--x--x--x-x--x-x-x--x---x--x--x--x---x--x--x--x--x--x--x--x--x--|-
-|--10-10--9--9--9--3-3--3-3-3--3---10-10-10-10--9--9--9--9--9--9--9--9--9--|-
-|--------------------------------------------------------------------------|-



-|------------------------------------|---------------------------------------
-|------------------------------------|---------------------------------------
-|--5-5-5--5/7--7-7-7-7-7--7/9-9--7--|---------------------------------------
-|--x-x-x--x-x--x-x-x-x-x--x-x-x---x--|---------------------------------------
-|--3-3-3--3/5--5-5-5-5-5--5/7-7--5--|---------------------------------------
-|------------------------------------|---------------------------------------

______________________________
Gentilmente Cedido Por:
Eduardo Paiva Santana


Quer fazer uma correção nesta cifra?







    Comentários (0) Postar um Comentário

    Nenhum comentário encontrado. Seja o primeiro!