Cifra da música: Leash - Pearl Jam

Esse cifra de Pearl Jam já foi acessado por 570 pessoas.

Comente

A música Leash fez muito sucesso quando foi gravada por Pearl Jam. Quer conhecer a letra dela? Veja a letra de Leash e cante.

Veja também o vídeo da música tocada.


intro: B
then (this is the verse too):
|---------------------------------------------------------------------
|-----------------------10--12----------------------------------------
|-------------------------------9-11----------------------------------
|---------------------------------------------------------------------
|--7h9-7h9-7h9-7h9----------------------------------------------------
|--7---7---7---7------------------------------------------------------

prechorus: A B C D B C
	     D C B C

verse
prechorus
chorus: D C B C
with:
|--10-10-10-8-8-7-7-10-10-10-10-10-8-8-7-7-10-10-10-10s12-12-12-------
|---------------------------------------------------------------------
|---------------------------------------------------------------------
|---------------------------------------------------------------------
|---------------------------------------------------------------------
|---------------------------------------------------------------------

|12-12-13-12-10-10-12-12-13-13-12-10-10-12-12-13-13-12-10-10-12-12----
|---------------------------------------------------------------------
|---------------------------------------------------------------------
|---------------------------------------------------------------------
|---------------------------------------------------------------------
|---------------------------------------------------------------------

|-13-13-12-15s17s15-15s17s15-------15-------15--------15--------------
|----------------------------15h17----15h17-----15h17-----------------
|---------------------------------------------------------------------
|---------------------------------------------------------------------
|---------------------------------------------------------------------
|---------------------------------------------------------------------

verse

solo:
|-12--15--12--15--12--15--15-12---------------------------------------
|-15b-----15b-----15b------------12-15-12--12-------15-13-------------
|----------------------------------------14---12-14-------12-14b------
|-unison--------------------------------------------------------------
|---------------------------------------------------------------------
|---------------------------------------------------------------------

|-15-12-15-17-21b--20----------15--21b-20-----------------------------
|---------------------17-15-17------------shit lost it----------------
|--------------------------------------------finish in G--------------
|---------------------------------------------------------------------
|---------------------------------------------------------------------
|---------------------------------------------------------------------


Quer fazer uma correção nesta cifra?







    Comentários (0) Postar um Comentário

    Nenhum comentário encontrado. Seja o primeiro!