Cifra da música: Last Exit - Pearl Jam

Esse cifra de Pearl Jam já foi acessado por 590 pessoas.

Comente

A música Last Exit fez muito sucesso quando foi gravada por Pearl Jam. Quer conhecer a letra dela? Veja a letra de Last Exit e cante.

Veja também o vídeo da música tocada.


intro:
|-----------------|
|---1-----1-------|
|---0--0--0--0----|
|---2--0--2--0----|
|---3--2--3--2----|
|------2-----2----|

verse: use intro riff

chorus:
|------------------------------------------|
|------------------------------------------|
|-10-9--5-6-7--10-9-5-5-5-5-5--10-9--5-6-7-|
|-10-9--5-6-7--10-9-5-5-5-5-5--10-9--5-6-7-|
|--8-7--3-4-5---8-7-3-3-3-3-3---8-7--3-4-5-|
|------------------------------------------|

verse
chorus
solo after chorus (bearly audible):
|---------------------------------------------------------------------
|-----------------------------------------------------10~-12b---------
|-9--12b-12b-12b-12b-12b--9--9-9-9-7-7--------------------------------
|--------------------------------------9-9-7-7-5-7s-------------------
|---------------------------------------------------------------------
|---------------------------------------------------------------------
then Mike comes in with his:
|---------------------------------------------------------------------
|--12--10--8--6-------------------------------------------------------
|--10---9--7--5-------------------------------------------------------
|---------------------------------------------------------------------
|--tremelo picking----------------------------------------------------
|---------------------------------------------------------------------

chorus
then start strumming Bb A
then verse chords


Quer fazer uma correção nesta cifra?







    Comentários (0) Postar um Comentário

    Nenhum comentário encontrado. Seja o primeiro!