Cifra da música: In My Tree - Pearl Jam

Esse cifra de Pearl Jam já foi acessado por 498 pessoas.

Comente

A música In My Tree fez muito sucesso quando foi gravada por Pearl Jam. Quer conhecer a letra dela? Veja a letra de In My Tree e cante.

Veja também o vídeo da música tocada.


guitar one: EBEBEE
guitar two: EBEBEE
guitar three: standard

bass
|---------------------------------------------------------------------
|---------------------------------------------------------------------
|-7-7-7-7-7-7-7-7--9-9--9-9--9-9--9-9---------------------------------
|-------------------------------------5-5-5-5-5-5-5-5-5-7-7-7-7-7-7-7-

verse:
guitar one:
|---------------------------------------------------------------------
|---------------------------------------------------------------------
|-5-5-5-5-5-5-5-5-4-4-4-4-4-4-4-4-44-2-22-2-2-2-2-22-2-2-4-4-4-4-4-4-4
|-0-0-0-0-0-0-0-0-0-0-0-0-0-0-0-0-00-0-00-0-0-0-0-00-0-0-0-0-0-0-0-0-0
|-5-5-5-5-5-5-5-5-4-4-4-4-4-4-4-4-44-2-22-2-2-2-2-22-2-2-4-4-4-4-4-4-4
|---------------------------------------------------------------------
guitar two:
|---------------------------------------------------------------------
|---------------------------------------------------------------------
|-5-5-5-5-5-5-5-5-7-7-7-7-7-7-7-7-77----------------------------------
|-5-5-5-5-5-5-5-5-7-7-7-7-7-7-7-7-77-5-55-5-5-5-5-55-5-5-7-7-7-7-7-7-7
|-5-5-5-5-5-5-5-5-7-7-7-7-7-7-7-7-77-5-55-5-5-5-5-55-5-5-7-7-7-7-7-7-7
|------------------------------------5-55-5-5-5-5-55-5-5-7-7-7-7-7-7-7
guitar three:
|---------------------------------------------------------------------
|---------------------------------------------------------------------
|-9-9-9-9-9-9-9-9-11-11-11-11-11-11-11--------------------------------
|-9-9-9-9-9-9-9-9-11-11-11-11-11-11-11-77-7-7-7-7-77-7-7-9-9-9-9-9-9-9
|-7-7-7-7-7-7-7-7--9--9--9--9--9--9--9-77-7-7-7-7-77-7-7-9-9-9-9-9-9-9
|--------------------------------------55-5-5-5-5-55-5-5-7-7-7-7-7-7-7

chorus:
guitar one:
|---------------------------------------------------------------------
|---------------------------------------------------------------------
|-----------------5--5--5---------------------------------------------
|-3--3-3--5-5--5--0--0--0---------------------------------------------
|-3--3-3--5-5--5--5--5--5---------------------------------------------
|-3--3-3--5-5--5------------------------------------------------------
guitar two:
|---------------------------------------------------------------------
|---------------------------------------------------------------------
|---------------------------------------------------------------------
|-3--3-3--5--5-5--0--0-0----------------------------------------------
|-3--3-3--5--5-5--0--0-0----------------------------------------------
|-3--3-3--5--5-5--0--0-0----------------------------------------------
guitar three:
|---------------------------------------------------------------------
|---------------------------------------------------------------------
|---------------------------------------------------------------------
|-5-5-5--7--7--7---9--9--9--------------------------------------------
|-5-5-5--7--7--7---9--9--9--------------------------------------------
|-3-3-3--5--5--5---7--7--7--------------------------------------------

chant part:
guitar one
|---------------------------------------------------------------------
|---------------------------------------------------------------------
|---------------------------------------------------------------------
|--7--6--8-8-8-8--7--10-10-10-10--------------------------------------
|--7--6--8-8-8-8--7--10-10-10-10--------------------------------------
|--7--6--8-8-8-8--7--10-10-10-10--------------------------------------

verse with fill:
guitar two:
|---------------------------------------------------------------------
|-16~~~-14~~~~-12~~~~-13-14-16~~~--14~~~-12~~~-17~~~-13-14-16~~~------
|---------------------------------------------------------------------
|---------------------------------------------------------------------
|---------------------------------------------------------------------
|---------------------------------------------------------------------

chorus w/ fill:
guitar two:
|---------------------------------------------------------------------
|--4--2-1---------0---repeat------------------------------------------
|-----------4--2------------------------------------------------------
|---------------------------------------------------------------------
|---------------------------------------------------------------------
|---------------------------------------------------------------------

end with verse riff



Quer fazer uma correção nesta cifra?







    Comentários (0) Postar um Comentário

    Nenhum comentário encontrado. Seja o primeiro!