Cifra da música: Hitchhiker - Pearl Jam

Esse cifra de Pearl Jam já foi acessado por 584 pessoas.

Comente

A música Hitchhiker fez muito sucesso quando foi gravada por Pearl Jam. Quer conhecer a letra dela? Veja a letra de Hitchhiker e cante.

Veja também o vídeo da música tocada.


G1 is a 12 string guitar

-|--------|------------------------------|------------------------------------
-|--------|------------------------------|------------------------------------
-|--------|--------------2-2-2-2---------|------------------------------------
-|--------|-2--2---2-2-2-0-0-0-0---------|------------------------------------
-|--------|-0--0---0-0-0---------0-------|------------------------------------
-|--3-1-3-|------------------------3-1-3-|------------------------------------
 G1        Verse riff                                                         

-|--------|------------------------------|------------------------------------
-|--------|--------------3-3-3-3-3-------|------------------------------------
-|--------|-2--2---2-2-2-2-2-2-2-2-2-2-2-|------------------------------------
-|--------|-2--2---2-2-2-0-0-0-0-0-0-0-0-|------------------------------------
-|--------|-0--0---0-0-0-----------------|------------------------------------
-|--------|------------------------------|------------------------------------
 G2                                                                           

-|---------------------------------------------------------|------------------
-|---------------------------------------------------------|------------------
-|---------------------------------------------------------|------------------
-|--0--0---------------------------------------------------|------------------
-|--1--1---1-1-1-1-1-1-1-1-1-1-1--/3---3---3---3---3---3---|------------------
-|---------------------------------------------------------|------------------
 G1 Prechorus                                                                 

-|---------------------------------------------------------|------------------
-|-----------------------------------------0---0---0---0---|------------------
-|-----------------------------------------0---0---0---0---|------------------
-|--3--3---3-3-3-3-3-3-3-3-3-3-3---5-------2---2---2---2---|------------------
-|--1--1---1-1-1-1-1-1-1-1-1-1-1---3-------3---3---3---3---|------------------
-|---------------------------------------------------------|------------------
 G2                                                                           

-|----------------------------------|-----------------------------------------
-|----------------------------------|-----------------------------------------
-|----------------------------------|-----------------------------------------
-|--2---2---2---2-------------------|-----------------------------------------
-|--0---0---3---3---2-3-2-----------|-----------------------------------------
-|------------------------0---0-0-0-|-----------------------------------------
 G1 Chorus                   play 6 times                                     

-|--5---5---------------------------|-----------------------------------------
-|--5---5---------------------------|-----------------------------------------
-|--5---5---------------------------|-----------------------------------------
-|--7---7---------------------------|-----------------------------------------
-|--0---0---------------------------|-----------------------------------------
-|------------------7-8-7-0---------|-----------------------------------------
 G2                                                                           

-|---------------------------------|---------------------------------|--------
-|---------------------------------|---------------------------------|--------
-|---------------------------------|---------------------------------|--------
-|---------------------------------|-----------4-4-4-4-4-4-4---------|--------
-|-5-5-5-5-5-5-5-5-5-5-5-5-5-5-5-5-|-5-5-5-5-5-5-5-5-5-5-5-5-0-------|--------
-|---------------------------------|---------------------------3-1-3-|--------
 G1                                                                           

-|---------------------------------|---------------------------------|--------
-|-3-------------------------------|-------------3-3-3-3-3-3-3-3-3-3-|--------
-|-0-------------------------------|-------------0-0-0-0-0-0-0-0-0-0-|--------
-|-4-------------------------------|-------------4-4-4-4-4-4-4-4-4-4-|--------
-|-5-----------------------5-5-5-5-|-5-5-5-5-5-5-5-5-5-5-5-5-5-5-5-5-|--------
-|---------------------------------|---------------------------------|--------
 G2                                                                           

-|----------------------------------------------------------------------------
-|----------------------------------------------------------------------------
-|----------------------------------------------------------------------------
-|----------------------------------------------------------------------------
-|----------------------------------------------------------------------------
-|----------------------------------------------------------------------------
 The bridge is just a bunch of random noises...feedback, scrapes, taps, etc    

-|--0-----------||------------------------------------------------------------
-|--0-----------||------------------------------------------------------------
-|--1-----------||------------------------------------------------------------
-|--2-----------||------------------------------------------------------------
-|--2-----------||------------------------------------------------------------
-|--0-----------||------------------------------------------------------------
 Both guitars end on an E                                                     




Quer fazer uma correção nesta cifra?







    Comentários (0) Postar um Comentário

    Nenhum comentário encontrado. Seja o primeiro!