Cifra da música: Greemie Out Of Control - Pearl Jam

Esse cifra de Pearl Jam já foi acessado por 492 pessoas.

Comente

A música Greemie Out Of Control fez muito sucesso quando foi gravada por Pearl Jam. Quer conhecer as demais músicas? Conheça as letras das músicas gravadas por Pearl Jam e aproveite.

Veja também o vídeo da música tocada.


G1 is CGDGBE
G2 is standard tuned
G3 is CGCFAD

-|------------------------------------------------------------------------|---
-|--------------------------------3-3-------------------------------------|---
-|------------------------------------------5-----------------------------|---
-|-x-x-x-x-x-x-x-x-x-x-x-x---------------5--5------x-x-x-x-x-x-x-x--------|---
-|-x-x-x-x-x-x-x-x-x-x-x-x---------------5--5------x-x-x-x-x-x-x-x--------|---
-|-x-x-x-x-x-x-x-x-x-x-x-x-*22-0------------------x-x-x-x-x-x-x-x-*22---|---
 G1               *tremelo pick as you slide down                             

-|-----------------------------------------------|----------------------------
-|-------------------------10b11r10-8-10----8----|----------------------------
-|-------------------------10b11r10-8-10----8----|----------------------------
-|--5---5-----5--5--5--5-----------------10------|----------------------------
-|--5---5--8--5--5--5--5-------------------------|----------------------------
-|-----------------------------------------------|----------------------------
 G1                                                                           

-|-------------------------------------------------|--------------------------
-|-------------------------------------------------|--------------------------
-|-------------------------------------------------|--------------------------
-|-------------------------------------------------|--------------------------
-|-10-10-12-10-10-10-12-10-10-10-12-10-10-10-12-10-|--------------------------
-|--8--8--8--8--8--8--8--8--8--8--8--8--8--8--8--8-|--------------------------
 G2                                   (continue for rest of solo)             

-|--11----11--11----8---8---------------------------8-|-----------------------
-|--10b11-----11r10-8-8-8---------8---------8-------8-|-----------------------
-|------------------------10b12vv---10b12vv---10b12---|-----------------------
-|----------------------------------------------------|-----------------------
-|----------------------------------------------------|-----------------------
-|----------------------------------------------------|-----------------------
 G1 hold bend---|                                                             

-|-8---11b12--8----------8----------------|-----------------------------------
-|-8-8----------8-11b12--8-------8-----8--|-----------------------------------
-|-------------------------11-10-8-----8--|-----------------------------------
-|----------------------------------10----|-----------------------------------
-|----------------------------------------|-----------------------------------
-|----------------------------------------|-----------------------------------
 G1                                                                           

-|---------------------------------------------|------------------------------
-|----------8----------8----------8------------|------------------------------
-|-10b12vv----10b12vv----10b12vv----10b12vvvv--|------------------------------
-|---------------------------------------------|------------------------------
-|---------------------------------------------|------------------------------
-|---------------------------------------------|------------------------------
 G1                                                                           

-|-------------------------------------------------------|--------------------
-|-------------------------------------------------------|--------------------
-|-------------------------------------------------------|--------------------
-|----5--5--7--5---5--5--7--5---5--5--7--5---5--5--7--5--|--------------------
-|----5--5--5--5---5--5--5--5---5--5--5--5---5--5--5--5--|--------------------
-|-------------------------------------------------------|--------------------
 G1 Every beach has a clown who thinks he knows it all                        

-|-------------------------------------------------------|--------------------
-|-------------------------------------------------------|--------------------
-|-------------------------------------------------------|--------------------
-|-------------------------------------------------------|--------------------
-|---10-10-12-10--10-10-12-10--10-10-12-10--10-10-12-10--|--------------------
-|----8--8--8--8---8--8--8--8---8--8--8--8---8--8--8--8--|--------------------
 G2                                                                           

-|------------------------------------------------------|---------------------
-|------------------------------------------------------|---------------------
-|------------------------------------------------------|---------------------
-|----5--5--7--5---5--5--7--5---5--5--7--5---5--5--7--5-|---------------------
-|----5--5--5--5---5--5--5--5---5--5--5--5---5--5--5--5-|---------------------
-|------------------------------------------------------|---------------------
 G1  (Hang ten out of Santa Fe where the surf goes out to the ????)           

-|------------------------------------------------------|---------------------
-|------------------------------------------------------|---------------------
-|------------------------------------------------------|---------------------
-|------------------------------------------------------|---------------------
-|---10-10-12-10--10-10-12-10--10-10-12-10--10-10-12-10-|---------------------
-|----8--8--8--8---8--8--8--8---8--8--8--8---8--8--8--8-|---------------------
 G2                                                                           

-|------------------------------------------------------|---------------------
-|------------------------------------------------------|---------------------
-|------------------------------------------------------|---------------------
-|----5--5--7--5---5--5--7--5---5--5--7--5---5--5--7--5-|---------------------
-|----5--5--5--5---5--5--5--5---5--5--5--5---5--5--5--5-|---------------------
-|------------------------------------------------------|---------------------
 G1  And he's always practicing his cowabunga call                            

-|------------------------------------------------------|---------------------
-|------------------------------------------------------|---------------------
-|------------------------------------------------------|---------------------
-|------------------------------------------------------|---------------------
-|---10-10-12-10--10-10-12-10--10-10-12-10--10-10-12-10-|---------------------
-|----8--8--8--8---8--8--8--8---8--8--8--8---8--8--8--8-|---------------------
 G2                                                                           

-|----------------------------------------------------|-----------------------
-|----------------------------------------------------|-----------------------
-|----------------------------------------------------|-----------------------
-|--5--5--7--5---5--5--7--5---5--5--7--5---5--5--7--5-|-----------------------
-|--5--5--5--5---5--5--5--5---5--5--5--5---5--5--5--5-|-----------------------
-|----------------------------------------------------|-----------------------
 G1    COWABUNGA!!!                                                           

-|----------------------------------------------------|-----------------------
-|----------------------------------------------------|-----------------------
-|----------------------------------------------------|-----------------------
-|----------------------------------------------------|-----------------------
-|-10-10-12-10--10-10-12-10--10-10-12-10--10-10-12-10-|-----------------------
-|--8--8--8--8---8--8--8--8---8--8--8--8---8--8--8--8-|-----------------------
 G2                                                                           

-|-----------------------------------------------------|----------------------
-|-----------------------------------------------------|----------------------
-|-----------------------------------------------------|----------------------
-|--10-10-12-10--10-10-12-10--10-10-12-10--10-10-12-10-|----------------------
-|--10-10-10-10--10-10-10-10--10-10-10-10--10-10-10-10-|----------------------
-|-----------------------------------------------------|----------------------
 G1 But the men have scrambled when the big waves start to roll               

-|-----------------------------------------------------|----------------------
-|-----------------------------------------------------|----------------------
-|-----------------------------------------------------|----------------------
-|--10-10-12-10--10-10-12-10--10-10-12-10--10-10-12-10-|----------------------
-|---8--8--8--8---8--8--8--8---8--8--8--8---8--8--8--8-|----------------------
-|-----------------------------------------------------|----------------------
 G2                                                                           

-|----------------------------------------------------|-----------------------
-|----------------------------------------------------|-----------------------
-|----------------------------------------------------|-----------------------
-|-10-10-12-10--10-10-12-10--10-10-12-10--10-10-12-10-|-----------------------
-|-10-10-10-10--10-10-10-10--10-10-10-10--10-10-10-10-|-----------------------
-|----------------------------------------------------|-----------------------
 G1                                        'Cause there's                     

-|----------------------------------------------------|-----------------------
-|----------------------------------------------------|-----------------------
-|----------------------------------------------------|-----------------------
-|-10-10-12-10--10-10-12-10--10-10-12-10--10-10-10-10-|-----------------------
-|--8--8--8--8---8--8--8--8---8--8--8--8---8--8--8--8-|-----------------------
-|----------------------------------------------------|-----------------------
 G2                                                                           

-|---5--------------------3-------1----------------------------|--------------
-|---5--------------------3-------1----------5--5--------------|--------------
-|---6--------------------4-------2----------7-----------------|--------------
-|---7--------------------5-------3----------7-----------------|--------------
-|-------------------------------------------------------------|--------------
-|-----------------------------------------------------*21\-|--------------
 G1  Nothing worse than a gremmie out of control                              

-|---5-------5------------3-------1----------0-----------------|--------------
-|---5-------5------------3-------1----------3--3-3-3----------|--------------
-|---6-------6------------4-------2----------2--2-2-2----------|--------------
-|---7-------7------------5-------3----------0--0-0-0----------|--------------
-|---7-------7------------5-------3----------------------------|--------------
-|---5-------5------------3-------1--------------------*19\-|--------------
 G2                                                 (*pick as you slide down) 

-|---------------------------------------------------------------------|------
-|--6-----------------5--5---------8vvvv-------------9--9--9--9--9--9--|------
-|--7-----------------7----7-------7vvvv-------------8--8--8--8--8--8--|------
-|--7-----------------7------------8vvvv-------------6--6--6--6--6--6--|------
-|---------------------------------------------------------------------|------
-|---------------------------------------------------------------------|------
 G1 Gremmie out of control         gremmie out of control        there's      

-|--0--------------------0---------------------------4--4--4--4--4--4--|------
-|--3-----------------3----3-------------------------4--4--4--4--4--4--|------
-|--2-----------------2------------------------------5--5--5--5--5--5--|------
-|--0-----------------0------------------------------6--6--6--6--6--6--|------
-|---------------------------------------------------6--6--6--6--6--6--|------
-|---------------------------------------------------4--4--4--4--4--4--|------
 G2                                                                           

-|---------------------------------------------------------------------|------
-|----------6-------------------------------6--------------------------|------
-|----------7-------------------------------7-------7------------------|------
-|----------7------------3-------0----------7----7-------5-5-5-5-5-5-5-|------
-|-----------------------3-------0-----------------------7-7-7-7-7-7-7-|------
-|-------------------------------------------------------7-7-7-7-7-7-7-|------
 G1 Nothing worse than a gremmie out of control                               

-|------------------------------------------0------------3-3-3-3-3-3-3-|------
-|--6-------6-------------------------------3--3--3--3---3-3-3-3-3-3-3-|------
-|--7-------7-------------------------------2--2--2--2---4-4-4-4-4-4-4-|------
-|--7-------7------------8-------5----------0--0--0--0---5-5-5-5-5-5-5-|------
-|--5-------5------------8-------5------3----------------5-5-5-5-5-5-5-|------
-|-----------------------6-------3------5----------------3-3-3-3-3-3-3-|------
 G2                                                                           

-|-----------------------------------------------------|----------------------
-|-----------------------------------------------------|----------------------
-|-----------------------------------------------------|----------------------
-|---5--5--7--5---5--5--7--5---5--5--7--5---5--5--7--5-|----------------------
-|---5--5--5--5---5--5--5--5---5--5--5--5---5--5--5--5-|----------------------
-|-----------------------------------------------------|----------------------
 G1 The kids all know that a gremmie's talk is cheap                          

-|-----------------------------------------------------|----------------------
-|-----------------------------------------------------|----------------------
-|-----------------------------------------------------|----------------------
-|-----------------------------------------------------|----------------------
-|--10-10-12-10--10-10-12-10--10-10-12-10--10-10-12-10-|----------------------
-|---8--8--8--8---8--8--8--8---8--8--8--8---8--8--8--8-|----------------------
 G2                                                                           

-|------------------------------------------------------|---------------------
-|------------------------------------------------------|---------------------
-|------------------------------------------------------|---------------------
-|---5--5--7--5---5--5--7--5---5--5--7--5---5--5--7--5--|---------------------
-|---5--5--5--5---5--5--5--5---5--5--5--5---5--5--5--5--|---------------------
-|------------------------------------------------------|---------------------
 G1 (Ride the Hula-Han over the pipeline bonsai to the Saddle Bowl)           

-|------------------------------------------------------|---------------------
-|------------------------------------------------------|---------------------
-|------------------------------------------9--9--9--9--|---------------------
-|-----------------------------------------10-10-10-10--|---------------------
-|--10-10-12-10--10-10-12-10--10-10-12-10---------------|---------------------
-|---8--8--8--8---8--8--8--8---8--8--8--8---------------|---------------------
 G2                                                                           

-|-----------------------------------------------------|----------------------
-|-----------------------------------------------------|----------------------
-|-----------------------------------------------------|----------------------
-|---5--5--7--5---5--5--7--5---5--5--7--5---5--5--7--5-|----------------------
-|---5--5--5--5---5--5--5--5---5--5--5--5---5--5--5--5-|----------------------
-|-----------------------------------------------------|----------------------
 G1 Oh they just try to ignore this ugly creep                                

-|-----------------------------------------------------|----------------------
-|-----------------------------------------------------|----------------------
-|---9--9--9--9---9--9--9--9---9--9--9--9---9--9--9--9-|----------------------
-|--10-10-10-10--10-10-10-10--10-10-10-10--10-10-10-10-|----------------------
-|-----------------------------------------------------|----------------------
-|-----------------------------------------------------|----------------------
 G2                                                                           

-|------------------------------------------------------|---------------------
-|------------------------------------------------------|---------------------
-|------------------------------------------------------|---------------------
-|---5--5--7--5---5--5--7--5---5--5--7--5---5--5--7--5--|---------------------
-|---5--5--5--5---5--5--5--5---5--5--5--5---5--5--5--5--|---------------------
-|------------------------------------------------------|---------------------
 G1        COWABUNGA!!!                                                       

-|------------------------------------------------------|---------------------
-|------------------------------------------------------|---------------------
-|---9--9--9--9---9--9--9--9---9--9--9--9---9--9--9--9--|---------------------
-|--10-10-10-10--10-10-10-10--10-10-10-10--10-10-10-10--|---------------------
-|------------------------------------------------------|---------------------
-|------------------------------------------------------|---------------------
 G2                                                                           

-|-----------------------------------------------------|----------------------
-|-----------------------------------------------------|----------------------
-|-----------------------------------------------------|----------------------
-|--10-10-12-10--10-10-12-10--10-10-12-10--10-10-12-10-|----------------------
-|--10-10-10-10--10-10-10-10--10-10-10-10--10-10-10-10-|----------------------
-|-----------------------------------------------------|----------------------
 G1 His board is always full of dings 'cause he's                             

-|-----------------------------------------------------|----------------------
-|-----------------------------------------------------|----------------------
-|-----------------------------------------------------|----------------------
-|--10-10-12-10--10-10-12-10--10-10-12-10--10-10-12-10-|----------------------
-|---8--8--8--8---8--8--8--8---8--8--8--8---8--8--8--8-|----------------------
-|-----------------------------------------------------|----------------------
 G2                                                                           

-|-----------------------------------------------------|----------------------
-|-----------------------------------------------------|----------------------
-|-----------------------------------------------------|----------------------
-|--10-10-12-10--10-10-12-10--10-10-12-10--10-10-10-10-|----------------------
-|--10-10-10-10--10-10-10-10--10-10-10-10--10-10-10-10-|----------------------
-|-----------------------------------------------------|----------------------
 G1 Always doing stupid things, and there's                                   

-|-----------------------------------------------------|----------------------
-|-------------------------------------10-----10-10-10-|----------------------
-|-------------------------------------10-----10-10-10-|----------------------
-|--10-10-12-10--10-10-12-10--10-10-12-10-----10-10-10-|----------------------
-|---8--8--8--8---8--8--8--8---8--8--8-----------------|----------------------
-|-----------------------------------------------------|----------------------
 G2                                                                           

-|------------------------------------------------------------------------|---
-|-10vvvvvvvv------------8vvvv---6vvvv----6----6--------------------------|---
-|--9vvvvvvvv------------7vvvv---5vvvv----7----7--------------------------|---
-|--7vvvvvvvv------------8vvvv---7vvvv----7----7--------------------------|---
-|------------------------------------------------------------------------|---
-|-------------------------------------------------------21\\-------|---
 G1 Nothing worse than a gremmie out of control                               

-|--5-------5------------3-------1----------------------------------------|---
-|--5-------5------------3-------1----------------------------------------|---
-|--6-------6------------4-------2----------------------------------------|---
-|--7-------7------------5-------3--------7-7-9-7-7-7-9-7-7-7-9-7-7-7-9-7-|---
-|--7-------7------------5-------3--------5-5-5-5-5-5-5-5-5-5-5-5-5-5-5-5-|---
-|--5-------5------------3-------1----------------------------------------|---
 G2                                                                           

-|---------------------------------------------------------------------|------
-|--5-----------------5---5--------8vvvvvvvv---------9--9--9--9--9--9--|------
-|--7-----------------7-----7------7vvvvvvvv---------8--8--8--8--8--8--|------
-|--7-----------------7-----7------8vvvvvvvv---------6--6--6--6--6--6--|------
-|---------------------------------------------------------------------|------
-|---------------------------------------------------------------------|------
 G1 Gremmie out of control         gremmie out of control       there's       

-|---------------------------------------------------4--4--4--4--4--4--|------
-|---------------------------------3-3-3-3-3-3-3-3---4--4--4--4--4--4--|------
-|---------------------------------4-4-4-4-4-4-4-4---5--5--5--5--5--5--|------
-|-7-7-7-7-7-7-7-7-7-7-7-7-7-7-7-7-5-5-5-5-5-5-5-5---6--6--6--6--6--6--|------
-|-5-5-5-5-5-5-5-5-5-5-5-5-5-5-5-5-------------------6--6--6--6--6--6--|------
-|---------------------------------------------------4--4--4--4--4--4--|------
 G2                                                                           

-|---------------------------------------------------------------------|------
-|--6-------6-------------------------------5--------------------------|------
-|--7-------7-------------------------------7--------------------------|------
-|--7-------7------------3-------0----------7------------5-5-5-5-5-5-5-|------
-|-----------------------3-------0-----------------------7-7-7-7-7-7-7-|------
-|-------------------------------------------------------7-7-7-7-7-7-7-|------
 G1 Nothing worse than a gremmie out of control                               

-|------------------------------------------0------------3-3-3-3-3-3-3-|------
-|--6-------6-------------------------------3--3--3--3---3-3-3-3-3-3-3-|------
-|--7-------7-------------------------------2--2--2--2---4-4-4-4-4-4-4-|------
-|--7-------7------------8-------5----------0--0--0--0---5-5-5-5-5-5-5-|------
-|--5-------5------------8-------5------3----------------5-5-5-5-5-5-5-|------
-|-----------------------6-------3------5----------------3-3-3-3-3-3-3-|------
 G2                                                                           

-|-------------------------------------|--------------------------------------
-|-------------------------------------|--------------------------------------
-|-------------------------------------|--------------------------------------
-|--5-5-7-5--5-5-7-5--5-5-7-5--5-5-7-5-|--------------------------------------
-|--5-5-5-5--5-5-5-5--5-5-5-5--5-5-5-5-|--------------------------------------
-|-------------------------------------|--------------------------------------
 G1                                                                           

-|-------------------------------------|--------------------------------------
-|-------------------------------------|--------------------------------------
-|-------------------------------------|--------------------------------------
-|-------------------------------------|--------------------------------------
-|-------------------------------------|--------------------------------------
-|--0---0-0--4---0-4--7---7-5----4-0---|--------------------------------------
 G3                                                                           

-|-11--8--8--------------------------------|----------------------------------
-|-10--8-11-8-10-8---------10-8-10-8-------|----------------------------------
-|-----8-10-8-10-8-12p10p8-10-8-10-8-------|----------------------------------
-|------------------------------10-8-------|----------------------------------
-|-----------------------------------------|----------------------------------
-|-----------------------------------10-12-|----------------------------------
 G1                                                                           

-|-----------------------------------------|----------------------------------
-|-----------------------------------------|----------------------------------
-|-----------------------------------------|----------------------------------
-|-7-7-9-7---7-7-9-7---7-7-9-7---7-7-9-7---|----------------------------------
-|-5-5-5-5---5-5-5-5---5-5-5-5---5-5-5-5---|----------------------------------
-|-----------------------------------------|----------------------------------
 G3                                                                           

-|-------------------------------------------------|--------------------------
-|-------------------------------------------------|--------------------------
-|-------------------------------------------------|--------------------------
-|-10-10-12-10-10-10-12-10-10-10-12-10-10-10-12-10-|--------------------------
-|-10-10-10-10-10-10-10-10-10-10-10-10-10-10-10-10-|--------------------------
-|-------------------------------------------------|--------------------------
 G1                                                                           

-|-------------------------------------------------|--------------------------
-|-------------------------------------------------|--------------------------
-|-------------------------------------------------|--------------------------
-|-------------------------------------------------|--------------------------
-|--------------2--------2--/5--5--5--3----2-------|--------------------------
-|--5----5--5---------5-----------------------5----|--------------------------
 G3                                                                           

-|------------------------------------------------------|---------------------
-|-------------------8----------8----------8----------8-|---------------------
-|----------10b12vv----10b12vv----10b12vv----10b12vv----|---------------------
-|------------------------------------------------------|---------------------
-|-12-12-12---------------------------------------------|---------------------
-|-12-12-12---------------------------------------------|---------------------
 G1                                                                           

-|------------------------------------------------------|---------------------
-|------------------------------------------------------|---------------------
-|------------------------------------------------------|---------------------
-|--7--7--9--7---7--7--9--7---7--7--9--7---7--7--9--7---|---------------------
-|--5--5--5--5---5--5--5--5---5--5--5--5---5--5--5--5---|---------------------
-|------------------------------------------------------|---------------------
 G3                                                                           

-|-------------------------------------------------|--------------------------
-|-------------------------------------------------|--------------------------
-|-------------------------------------------------|--------------------------
-|-12-12-14-12-12-12-14-12-10-10-10-10-10-10-12-10-|--------------------------
-|-12-12-12-12-12-12-12-12-10-10-13-14-10-10-10-10-|--------------------------
-|-------------------------------------------------|--------------------------
 G1                                                                           

-|-------------------------------------------------|--------------------------
-|-------------------------------------------------|--------------------------
-|-------------------------------------------------|--------------------------
-|-------------------------------------------------|--------------------------
-|-------------------------------------------------|--------------------------
-|-/7--7--7--/7----7--7--6--5-----5--3--5b7r5--3---|--------------------------
 G3                                                                           

-|--------------8-------------------------------------------|-----------------
-|-----10b11r10-8-10-8--------------------------------------|-----------------
-|-----10b11r10-8-10-8-------10--10--10---9---9---8---8--7--|-----------------
-|-------------------8-------10--10--10---9---9---8---8--7--|-----------------
-|---------------------------10--10--10---9---9---8---8--7--|-----------------
-|-12------------------12----12--12--12--11--11--10--10--9--|-----------------
 G1                                                                           

-|---------------------------13--13--13--12--12--11--11-10--|-----------------
-|---------------------------13--13--13--12--12--11--11-10--|-----------------
-|----------------------------------------------------------|-----------------
-|---------------3------------------------------------------|-----------------
-|--/5--5--3--5-----5--3------------------------------------|-----------------
-|----------------------------------------------------------|-----------------
                                                                              

-|--------------------------------------------------------------------|-------
-|--6----------------6vvvv---------8vvvvvvvv--------------------------|-------
-|--7----------------7vvvv-7-------7vvvvvvvv--------5--5--5--5--5--5--|-------
-|--7----------------7vvvv-7-------8vvvvvvvv--------6--6--6--6--6--6--|-------
-|--------------------------------------------------8--8--8--8--8--8--|-------
-|--------------------------------------------------------------------|-------
 G1 Gremmie out of control        gremmie out of control       there's        

-|--------------------------------------------------4--4--4--4--4--4--|-------
-|---------------------------------3-3-3-3-3-3-3-3--4--4--4--4--4--4--|-------
-|---------------------------------4-4-4-4-4-4-4-4--5--5--5--5--5--5--|-------
-|-7-7-7-7-7-7-7-7-7-7-7-7-7-7-7-7-5-5-5-5-5-5-5-5--6--6--6--6--6--6--|-------
-|-5-5-5-5-5-5-5-5-5-5-5-5-5-5-5-5------------------6--6--6--6--6--6--|-------
-|--------------------------------------------------4--4--4--4--4--4--|-------
 G2                                                                           

-|------------------------------------------------------4--4--4--4--4--4--|---
-|--6-------6-------------------------------3-----------4--4--4--4--4--4--|---
-|--7-------7-------------------------------2-----------5--5--5--5--5--5--|---
-|--7-------7------------3-------0----------0-----------6--6--6--6--6--6--|---
-|-----------------------3-------0------2---------------------------------|---
-|------------------------------------------------------------------------|---
 G1 Nothing worse than a gremmie out of control                      there's  

-|------------------------------------------------------4--4--4--4--4--4--|---
-|--6-------6-------------------------------6--6--6--0--4--4--4--4--4--4--|---
-|--7-------7-------------------------------7--7--7--0--5--5--5--5--5--5--|---
-|--7-------7------------8-------5----------7--7--7--0--6--6--6--6--6--6--|---
-|--5-------5------------8-------5------3---5--5--5-----6--6--6--6--6--6--|---
-|-----------------------6-------3------5---------------4--4--4--4--4--4--|---
 G2                                                                           

-|------------------------------------------------------4--4--4--4--4--4--|---
-|--6-------6-------------------------------3-----------4--4--4--4--4--4--|---
-|--7-------7-------------------------------2-----------5--5--5--5--5--5--|---
-|--7-------7------------3-------0----------0-----------6--6--6--6--6--6--|---
-|-----------------------3-------0------2---------------------------------|---
-|------------------------------------------------------------------------|---
 G1 Nothing worse than a gremmie out of control                      there's  

-|------------------------------------------------------4--4--4--4--4--4--|---
-|--6-------6-------------------------------6--6--6--0--4--4--4--4--4--4--|---
-|--7-------7-------------------------------7--7--7--0--5--5--5--5--5--5--|---
-|--7-------7------------8-------5----------7--7--7--0--6--6--6--6--6--6--|---
-|--5-------5------------8-------5------3---5--5--5-----6--6--6--6--6--6--|---
-|-----------------------6-------3------5---------------4--4--4--4--4--4--|---
 G2                                                                           

-|----------------------------------------------||----------------------------
-|--6-------6-------------------------------3---||----------------------------
-|--7-------7-------------------------------2---||----------------------------
-|--7-------7------------3-------0----------0---||----------------------------
-|-----------------------3-------0------2-------||----------------------------
-|----------------------------------------------||----------------------------
 G1 Nothing worse than a gremmie out of control                               

-|----------------------------------------------||----------------------------
-|--6-------6-------------------------------6---||----------------------------
-|--7-------7-------------------------------7---||----------------------------
-|--7-------7------------8-------5----------7---||----------------------------
-|--5-------5------------8-------5------3---5---||----------------------------
-|-----------------------6-------3------5-------||----------------------------
 G2                                                                           





Quer fazer uma correção nesta cifra?







    Comentários (0) Postar um Comentário

    Nenhum comentário encontrado. Seja o primeiro!