Cifra da música: Don't Gimme No Lip - Pearl Jam

Esse cifra de Pearl Jam já foi acessado por 620 pessoas.

Comente

A música Don't Gimme No Lip fez muito sucesso quando foi gravada por Pearl Jam. Quer conhecer a letra dela? Veja a letra de Don't Gimme No Lip e cante.

Veja também o vídeo da música tocada.


-|----------------------------------------------------------------------------
-|----------------------------------------------------------------------------
-|----------------------------------------------------------------------------
-|---5---5--5---5--5----------5--5-5--5-5----------5--5-5----10-10-10-7-7-7--
-|---5---5--5---5--5--x--x-x--5--5-5--5-5--x--x-x--5--5-5-/--10-10-10-7-7-7--
-|---3---3--3---0--3--x--x-x--3--3-3--0-3--x--x-x--3--3-3-/---8--8--8--5-5-5--
                     w/ harmonics                                         2x  

-|----------------------------------------------------------------------------
-|----------------------------------------------------------------------------
-|----------------------------------------------------------------------------
-|--5--5----5--5--5---5----5-----5--5--5--5----5-----5--5-10--10-10--7--7-----
-|--5--5----5--5--5---5----5-----5--5--5--5----5-----5--5-10--10-10--7--7-----
-|--3--3----3--3--0---3----3-----3--3--0--3----3-----3--3--8---8--8--5--5-----
      Don't gimme no lip.. don't gimme no lip  don't gimme no--           2x  

-|----------------------------------------------------------------------------
-|----------------------------------------------------------------------------
-|----------------------------------------------------------------------------
-|--5-5-5-5--5-5-5-5--3-3-3-3--3-3-3-3--2-2-2-2--2-2-2-2--2-2-2-2--2-2-2-2----
-|--5-5-5-5--5-5-5-5--3-3-3-3--3-3-3-3--2-2-2-2--2-2-2-2--2-2-2-2--2-2-2-2----
-|--3-3-3-3--3-3-3-3--1-1-1-1--1-1-1-1--0-0-0-0--0-0-0-0--0-0-0-0--0-0-0-0----
      don't gimme no lip, I've had my fill of it..                            

-|--------------------------------------------------------------0-------------
-|----------------------------------------------------------0---0--------0----
-|----------------------------------------------------------0---0--------0----
-|--5-5-5-5--5-5-5-5--3-3-3-3--3-3-3-3--2-2-2-2--2-2-2-2--2-2-2-2--2-2-2-2----
-|--5-5-5-5--5-5-5-5--3-3-3-3--3-3-3-3--2-2-2-2--2-2-2-2--2-2-2-2--2-2-2-2----
-|--3-3-3-3--3-3-3-3--1-1-1-1--1-1-1-1--0-0-0-0--0-0-0-0--0-0-0-0--0-0-0-0----
      don't gimme no lip, I've lost my taste for it...                        

-|----------------------------------------------------------------------------
-|--------0-----------------0-----------------0-----------------0-------------
-|--------0-----------------0-----------------0-----------------0-------------
-|--5-5-5-5--5-5-5-5--3-3-3-3--3-3-3-3--2-2-2-2--2-2-2-2--2-2-2-2--2-2-2-2----
-|--5-5-5-5--5-5-5-5--3-3-3-3--3-3-3-3--2-2-2-2--2-2-2-2--2-2-2-2--2-2-2-2----
-|--3-3-3-3--3-3-3-3--1-1-1-1--1-1-1-1--0-0-0-0--0-0-0-0--0-0-0-0--0-0-0-0----
      don't gimme no lip, you've gotta face this.. shit..                     

-|----------------------------------------------------------------------------
-|--------0-----------------0--------------------------0----------------------
-|--------0-----------------0--------------------------0----------------------
-|--5-5-5-5--5-5-5-5--3-3-3-3--3-3-3-3--2-2-2-2--2-2-2-2--2-2-2-2--2-2-2-2----
-|--5-5-5-5--5-5-5-5--3-3-3-3--3-3-3-3--2-2-2-2--2-2-2-2--2-2-2-2--2-2-2-2----
-|--3-3-3-3--3-3-3-3--1-1-1-1--1-1-1-1--0-0-0-0--0-0-0-0--0-0-0-0--0-0-0-0----
      don't gimme no lip, don't gimme no lip..                 woo!           

-|----------------------------------------------------------------------------
-|----------------------------------------------------------------------------
-|----------------------------------------------------------------------------
-|--5--5----5--5--5---5----5-----5--5--5--5----5-----5--5-10--10-10--7--7-----
-|--5--5----5--5--5---5----5-----5--5--5--5----5-----5--5-10--10-10--7--7-----
-|--3--3----3--3--0---3----3-----3--3--0--3----3-----3--3--8---8--8--5--5-----
      Don't gimme no lip.. don't gimme no lip  don't gimme no--           3x  

-|---------------------------------------------------------------------0------
-|---------------------------------------------------------------------0-0----
-|-----------------------------------------------------------------------0----
-|--5-5-5-5--5-5-5-5--3-3-3-3--3-3-3-3--2-2-2-2--2-2-2-2--2-2-2-2--2-2-2-2----
-|--5-5-5-5--5-5-5-5--3-3-3-3--3-3-3-3--2-2-2-2--2-2-2-2--2-2-2-2--2-2-2-2----
-|--3-3-3-3--3-3-3-3--1-1-1-1--1-1-1-1--0-0-0-0--0-0-0-0--0-0-0-0--0-0-0-0----
       don't gimme no lip, I'm just not having it..                           

-|----------------------------------------------------------------------------
-|----------------------------------------------------------------------------
-|----------------------------------------------------------------------------
-|--5-5-5-5--5-5-5-5--3-3-3-3--3-3-3-3--2-2-2-2--2-2-2-2--2-2-2-2--2-2-2-2----
-|--5-5-5-5--5-5-5-5--3-3-3-3--3-3-3-3--2-2-2-2--2-2-2-2--2-2-2-2--2-2-2-2----
-|--3-3-3-3--3-3-3-3--1-1-1-1--1-1-1-1--0-0-0-0--0-0-0-0--0-0-0-0--0-0-0-0----
       don't gimme no lip, stuck on your cigarette   w/ Fill 1 (at bottom)

-|----------------------------------------------------------------------------
-|--------------------------0-----------------------------------0-------------
-|--------------------------0-----------------------------------0-------------
-|--5-5-5-5--5-5-5-5--3-3-3-3--3-3-3-3--2-2-2-2--2-2-2-2--2-2-2-2--2-2-2-2----
-|--5-5-5-5--5-5-5-5--3-3-3-3--3-3-3-3--2-2-2-2--2-2-2-2--2-2-2-2--2-2-2-2----
-|--3-3-3-3--3-3-3-3--1-1-1-1--1-1-1-1--0-0-0-0--0-0-0-0--0-0-0-0--0-0-0-0----
       don't gimme no lip, I'm wiping off your spit..                         

-|----------------------------------------------------------------------------
-|-----------------------------------------------------0----------------------
-|-----------------------------------------------------0----------------------
-|--5-5-5-5--5-5-5-5--3-3-3-3--3-3-3-3--2-2-2-2--2-2-2-2--2-2-2-2--2-2-2-2----
-|--5-5-5-5--5-5-5-5--3-3-3-3--3-3-3-3--2-2-2-2--2-2-2-2--2-2-2-2--2-2-2-2----
-|--3-3-3-3--3-3-3-3--1-1-1-1--1-1-1-1--0-0-0-0--0-0-0-0--0-0-0-0--0-0-0-0----
        don't gimme no lip, don't gimme no lip                                

-|----------------------------------------------------------------------------
-|----------------------------------------------------------------------------
-|--14-14-14-14--14-14-14-14--12-12-12-12--12-12-12-12--9-9-9-9--9-9-9-9--9---
-|----------------------------------------------------------------------------
-|--12-12-12-12--12-12-12-12--10-10-10-10--10-10-10-10--7-7-7-7--7-7-7-7--7---
-|----------------------------------------------------------------------------
    w/ Figure 1 (2 times, below)                                              

-|----------------------------------------------------------------------------
-|----------------------------------------------------------------------------
-|-9-9-9--9/109/109/109/109--12-12-12-12--12-12-12-12--10-10-10-10--10-10-
-|----------------------------------------------------------------------------
-|-7-7-7--7/8-7/8-7/8-7/8-7--10-10-10-10--10-10-10-10---8--8--8--8---8--8-
-|----------------------------------------------------------------------------
                                                                              

-|--------------------------------------------|-|-----------------------------
-|--------------------------------------------|-|-----------------------------
-|-10-10--9-9-9-9--9-9-9-9--9-9-9-9--9-9-9-9--|-|-----------------------------
-|--------------------------------------------|-|-----------------------------
-|--8--8--7-7-7-7--7-7-7-7--7-7-7-7--7-7-7-7--|-|-----------------------------
-|--------------------------------------------|-|-----------------------------
                                        2x                                    

-|----------------------------------------------------------------------------
-|----------------------------------------------------------------------------
-|----------------------------------------------------------------------------
-|-10--10--10--10--8--8--8--8---7--7--7--7----7--7--7--7----------------------
-|-10--10--10--10--8--8--8--8---7--7--7--7----7--7--7--7----------------------
-|--8---8---8---8--6--6--6--6---5--5--5--5----5--5--5--5----------------------
   Figure 1                                             2x                    

-|----------------------------------------------------------------------------
-|----------------------------------------------------------------------------
-|----------------------------------------------------------------------------
-|--5--5----5--5--5---5----5-----5--5--5--5----5-----5--5-10--10-10--7--7-----
-|--5--5----5--5--5---5----5-----5--5--5--5----5-----5--5-10--10-10--7--7-----
-|--3--3----3--3--0---3----3-----3--3--0--3----3-----3--3--8---8--8--5--5-----
      Don't gimme no lip.. don't gimme no lip  don't gimme no--           3x  

-|----------------------------------------------------------------------------
-|----------------------------------------------------------------------------
-|----------------------------------------------------------------------------
-|--5--5----5--5--5---5----5-----5--5--5--5----5-----5--5--5------------------
-|--5--5----5--5--5---5----5-----5--5--5--5----5-----5--5--5------------------
-|--3--3----3--3--0---3----3-----3--3--0--3----3-----3--3--3------------------
      Don't gimme no lip.. don't gimme no lip  don't gimme no--          

-|----------------------------------------------------------------------------
-|----------------------------------------------------------------------------
-|---2b4r2p0---0--------------------------------------------------------------
-|-----------2---2--2-2--0----------------------------------------------------
-|----------------------------------------------------------------------------
-|----------------------------------------------------------------------------
   Fill 1




Quer fazer uma correção nesta cifra?







    Comentários (0) Postar um Comentário

    Nenhum comentário encontrado. Seja o primeiro!