Cifra da música: Dirty Frank - Pearl Jam

Esse cifra de Pearl Jam já foi acessado por 490 pessoas.

Comente

A música Dirty Frank fez muito sucesso quando foi gravada por Pearl Jam. Quer conhecer a letra dela? Veja a letra de Dirty Frank e cante.

Veja também o vídeo da música tocada.


-|-----------------------------|------------------------------|---------------
-|--8---x---5-----------------|--8---x-x--5-----------------|---------------
-|--7---x---5-----------------|--7---x-x--5-----------------|---------------
-|--9---x---5-----------------|--9---x-x--5-----------------|---------------
-|--7---x---7---6--0-6h7-0-0--|--7---x-x--7---6--0-6h7-0-0--|---------------
-|-----------------------------|------------------------------|---------------
 Intro, G1                  2x                              2x                

-|--------------------------|------------------------|----------------------|-
-|-8---x--5----------------|-8-----5---------------|-8---x--5------------|-
-|-7---x--5----------------|-7---4-5---------------|-7---x--5------------|-
-|-9---x--5----------------|-9-----5---------------|-9---x--5------------|-
-|-7---x--7--6--0-6h7-0-0--|-7-----7--6--0-6h7-0-0-|-7---x--7--6-0-6h7-0-|-
-|--------------------------|------------------------|----------------------|-
                         3x                       4x                          

-|----------------|---------------------------------------------|-------------
-|-8-----5------|---8-----8--------8----8-------8-------------|-------------
-|-7-----5------|---7-----7h9p7----7----7h9-----7----7h9p7----|-------------
-|-9-----5------|---------------------------------------------|-------------
-|-7-----7------|---------------------------------------------|-------------
-|----------------|---------------------------------------------|-------------
 Verse, G1     8x  Verse, G2(w/wah)       improv w/ these notes               

-|-------------------------------------------------------|--------------------
-|-8---x---5-----------------8---x---5-----------------|--------------------
-|-7---x---5-----------------7---x---5-----------------|--------------------
-|-9---x---5-----------------9---x---5-----------------|--------------------
-|-7---x---7---6--0-6h7-0-0--7---x---7---6--0-6h7-0-0--|--------------------
-|-------------------------------------------------------|--------------------
 Chorus, G1                                           2x                      

-|-------------------------------------------------------|--------------------
-|-------------------------------------------------------|--------------------
-|-------------7-7b8-5-----------------------------------|--------------------
-|-------------------------------------------------------|--------------------
-|-------------------------------------------------------|--------------------
-|-------------------------------------------------------|--------------------
 Chorus, G2                                           2x                      

-|----------------|----------------------|----------------|-------------------
-|-8-----5------|---8----8--------8----|---8------8----|-------------------
-|-7-----5------|---7----7h9p7----7h9--|---7h9p7--7----|-------------------
-|-9-----5------|----------------------|----------------|-------------------
-|-7-----7------|----------------------|----------------|-------------------
-|----------------|----------------------|----------------|-------------------
 Verse, G1     8x  Verse, G2(w/wah)                    4x                     

-|-----------------------------|------------------|---------------------------
-|-8---x--5------------------|--8----5----8----|---------------------------
-|-7---x--5------------------|--7----5----7----|---------------------------
-|-9---x--5------------------|--9----5----9----|---------------------------
-|-7---x--7----6--0-6h7-0-0--|--7----7----7----|---------------------------
-|-----------------------------|------------------|---------------------------
 2nd Chorus, G1              4x                                               

-|-----------------------------------------------|-------------------|--------
-|-----------------------------------------------|-15b16--15-12-15---|--------
-|-----------------------------------------------|-------------------|--------
-|-----------------------------------------------|-------------------|--------
-|-----------------------------------------------|-------------------|--------
-|-----------------------------------------------|-------------------|--------
 '...Hey man I'm just talking about Dirty Frank'   G2                         

-|----------------------------------------|-----------------------------|---|-
-|----------------------------------------|-----------------------------|---|-
-|----------------------------------------|-----------------------------|---|-
-|-7-x-x-x-x-5-------------5--0-7p5-0-0--|-5--------------5--0-7p5-0-0-|-5-|-
-|------------7--6-x-7p5-5----------------|-7--6--x-7p5-5---------------|-7-|-
-|----------------------------------------|-----------------------------|---|-
 Interlude, G1                                                        7x      

-|----|----|----|------|------|------|------|------|------|---------------|---
-|----|----|----|------|------|------|------|------|------|---------------|---
-|----|----|----|------|------|------|------|------|------|---------------|---
-|----|----|----|-9----|-9----|-9----|-9----|-9----|-9----|-x--x-x-x---x--|---
-|----|----|----|-7----|-7----|-7----|-7----|-7----|-7----|-x--x-x-x---x--|---
-|----|----|----|------|------|------|------|------|------|---------------|---
 Interlude, G2 (w/wah)                                                        

-|----------------------|------------------|----------------------------------
-|----------------------|-8-----5--------|----------------------------------
-|----------------------|-7-----5--------|----------------------------------
-|----------------------|-9-----5--------|----------------------------------
-|----------------------|-7-----7--------|----------------------------------
-|----------------------|------------------|----------------------------------
 Drum/Bass Jam           Verse, G1+G2    8x                                   

-|-----------------------------------------------------|----------------------
-|-8---x--5-----------------8---x--5-----------------|----------------------
-|-7---x--5-----------------7---x--5-----------------|----------------------
-|-9---x--5-----------------9---x--5-----------------|----------------------
-|-7---x--7---6--0-6h7-0-0--7---x--7---6--0-6h7-0-0--|----------------------
-|-----------------------------------------------------|----------------------
 Chorus, G1                                         2x                        

-|-------------------|---------------|----------------|-------------------|---
-|----------12-------|--------0------|----------12----|--------0-0--------|---
-|----14b16----12----|----2b4---0----|----14b16-------|----2b4-----0-0----|---
-|-------------------|---------------|----------------|-------------------|---
-|-------------------|---------------|----------------|-------------------|---
-|-------------------|---------------|----------------|-------------------|---
  Chorus, G2                                                                  

-|-------------------|----------------14-14-14----|---------------|-----------
-|----------12-------|----------12-12-12-12-12----|--------0------|-----------
-|----14b16----12----|----14b16-------------------|----2b4---0----|-----------
-|-------------------|----------------------------|---------------|-----------
-|-------------------|----------------------------|---------------|-----------
-|-------------------|----------------------------|---------------|-----------
                                                                              

-|-------------------------------|--------------------------------------------
-|--8-----5-----8-----5------|--------------------------------------------
-|--7-----5-----7-----5------|--------------------------------------------
-|--9-----5-----9-----5------|--------------------------------------------
-|--7-----7-----7-----7------|--------------------------------------------
-|-------------------------------|--------------------------------------------
 Bridge, G1 4x, slowly fade out   (blender sound effect)                      

-|----------------------------------------------|------------------------|----
-|----------------------------------------------|------------------------|----
-|----------------------------------------------|------------------------|----
-|----------------------------------------------|--9----9-9-9----9-9-9---|----
-|--7-7--7-7-7-7-7-7-7-7--7-7-7-7-7-7-7-7-7-7---|--7----7-7-7----7-7-7---|----
-|----------------------------------------------|------------------------|----
 Drum/Vocal Jam('Cook 'em...) G1(palm mute)  5x  G2(w/wah) 4x w/variations    

-|-----------------------------------------------------------------------|----
-|--15----15-----15------------------------------------------------------|----
-|---*b16----16-----16r14-14b16-14p12----12-14-12-14b16r14p12--------12--|----
-|------------------------------------14----------------------14-14------|----
-|-----------------------------------------------------------------------|----
-|-----------------------------------------------------------------------|----
 G2 *pre-bend---------|                                                       

-|-----------------------------------------------17b19-------|----------------
-|-------12----------------12-------------12------------12--|----------------
-|-14b16----12-14b16-12-14----------14b16----12---------12--|----------------
-|----------------------------12-14--------------------------|----------------
-|-----------------------------------------------------------|----------------
-|-----------------------------------------------------------|----------------
                               hard to hear here                              

-|-------------------------------------------------------------|--------------
-|-------------------------------------------------------------|--------------
-|----12-12-----------------------12vv--------14b16-14b16vvvv--|--------------
-|-14--------14-14-12------------------14-14-------------------|--------------
-|--------------------14-12-14-12------------------------------|--------------
-|-------------------------------------------------------------|--------------
                                               continue improvising......     

-|-------------------------------------|--------------------|-----------|-----
-|-12--12-12-12--x-12--12--12-12--x-x--|--------------------|-----------|-----
-|-12--12-12-12--x-12--12--12-12--x-x--|--12--x-x--12--x-x--|-12--/12--|-----
-|-12--12-12-12--x-12--12--12-12--x-x--|--12--x-x--12--x-x--|-12--/12--|-----
-|-10--10-10-10--x-10--10--10-10--x-x--|--10--x-x--10--x-x--|-10--/10--|-----
-|-------------------------------------|--------------------|-----------|-----
 G1 comes in after awhile   repeat                repeat                      

-|------------------------------------|---------------------------------------
-|------------------------------------|---------------------------------------
-|--12--x-x--12--x-12--12--x--12------|---------------------------------------
-|--12--x-x--12--x-12--12--x--12------|---------------------------------------
-|--10--x-x--10--x-10--10--x--10------|---------------------------------------
-|------------------------------------|---------------------------------------
 Solo Rhythm, G1           Jam on this till end                               

-|-----------12h15p12-----------------------------------------|---------------
-|-15b17vvvv---------12h15p12---------------------------------|---------------
-|---------------------------12h14p12--------------12-x-12vv--|---------------
-|-----------------------------------12h14---12h14------------|---------------
-|------------------------------------------------------------|---------------
-|------------------------------------------------------------|---------------
 Outro Solo, G2                                                               

-|----------12--------------------------------------------------------------|-
-|------------15-12--------------------15----15-15-15---------15----15-17vv-|-
-|-12-14-b16-------14-12h14-12-----/16----16----------16-/16----16---------|-
-|-----------------------------14-------------------------------------------|-
-|--------------------------------------------------------------------------|-
-|--------------------------------------------------------------------------|-
                                                                              

-|-x/-x-17---15----------------------17b19r17p15-17-15b---------------------|-
-|-x/------------17b18r17p15-17-15vv--------------------17--15-17--15h17vvv-|-
-|--------------------------------------------------------------------------|-
-|--------------------------------------------------------------------------|-
-|--------------------------------------------------------------------------|-
-|--------------------------------------------------------------------------|-
                                                                              

-|----------------------------------------------------|-----------------------
-|-17p15--15-17p15--15-17p15--15-17p15----------------|-----------------------
-|--------------------------16--------16-15-14-12-----|-----------------------
-|------------------------------------------------14--|-----------------------
-|----------------------------------------------------|-----------------------
-|----------------------------------------------------|-----------------------
                                                                              

-|------------------------------------|---------------------------------------
-|------------------------------------|---------------------------------------
-|--------------12-14-12-------14-12--|---------------------------------------
-|-12h14--12h14----------12-----------|---------------------------------------
-|------------------------------------|---------------------------------------
-|------------------------------------|---------------------------------------
                    'Ok I think that's enough'         



Quer fazer uma correção nesta cifra?







    Comentários (0) Postar um Comentário

    Nenhum comentário encontrado. Seja o primeiro!