Cifra da música: Bugs - Pearl Jam

Esse cifra de Pearl Jam já foi acessado por 500 pessoas.

Comente

A música Bugs fez muito sucesso quando foi gravada por Pearl Jam. Quer conhecer a letra dela? Veja a letra de Bugs e cante.

Veja também o vídeo da música tocada.


accordian arranged for guitar:
|-6-6-6-6--8--8--8--8-------------------------------------------------
|-6-6-6-6--10-10-10-10------------------------------------------------
|-7-7-7-7--10-10-10-10------------------------------------------------
|-8-8-8-8--10-10-10-10------------------------------------------------
|-8-8-8-8--8--8--8--8-------------------------------------------------
|-6-6-6-6-------------------------------------------------------------

then:
|-13-----13-----13-----13---------------------------------------------
|-14-----14-----14-----14---------------------------------------------
|-15-----15-----15-----15---------------------------------------------
|-15-----15-----15-----15---------------------------------------------
|-13-----13-----13-----13---------------------------------------------
|---------------------------------------------------------------------


Quer fazer uma correção nesta cifra?







    Comentários (0) Postar um Comentário

    Nenhum comentário encontrado. Seja o primeiro!