Cifra da música: All Those Yesterdays - Pearl Jam

Esse cifra de Pearl Jam já foi acessado por 579 pessoas.

Comente

A música All Those Yesterdays fez muito sucesso quando foi gravada por Pearl Jam. Quer conhecer a letra dela? Veja a letra de All Those Yesterdays e cante.

Veja também o vídeo da música tocada.


Note:
>....slide
p...pull off
v...virbrato

Standard Tuning

This is the Main Riff.  One guitar plays this 
throughout most of the song while another does
alternate riffs.

Riff #1
E-------------------------------------------------------
A--------------1------------------------1---------------
G--------2------------------------------1---------------
D---3---------------3-p-0----------2---------2----------
A------------------------------3------------------------
E-------------------------------------------------------

This is played throughout the verse.

Riff #2

             'Maybe it'll     wash       away....
E----------1-----------3------------------------------------
B------3-------------5---5----------1----------------1------
G---3--------3-3 > 5-------------2-------------------1------
D-----------------------------3---------3-p-0-----2-----2---
A----------------------------------------------3------------
E-----------------------------------------------------------

             'All         those   yesterdays...............'
                                                      (F5)
E---------------1---------------------3----------------8----
B---------3-----------------------5---------5----------10---
G---3------------------3-3> 5--------------------------10---
D------------------------------------------------------10---
A-------------------------------------------------------8---
E-----------------------------------------------------------

On the next part, one guitar plays riff # 1 
while the other alternates between F5 and E5.
F5			                   E5  
------------                      -----------
------10---                       -----9-----
------10---                       -----9-----
------10---                       -----9-----
------8----                       -----7-----
-----------                       -----------

What (F5)are you running (E5)from taking 
(F5)pills to get (E5)along creating 
(F5)walls to call(E5)your own.(F5)    (E5)
So (F5)no one catches (E5)you drifting 
(F5)off and doing (E5)all the things 
(F5)that we (E5)all (F5)do.
(E5)


Riff #2
'And now wash away....all those yesterdays.'

Riff #1 during:
'All those yesterdays, all those yesterdays, all those yesterdays.
 All those paper plates, all those yesterdays, all those yesterdays.'

Riff #3
This riff is played after the last echo of 
'all those yesterdays' till the end of the song.
It's played with a little distortion at first
then a lot when Ed starts singing 'There's still time for escape.'

E--------------------------------------------
B--------------------------------------------
G---------2--------------3-------------------
D---------------------3----------------------
A------3-------3-3>5---------5v--------------
E---1---------------------------4v--4-----0--        

REPEAT

Song Fades out while guitar alternates between F5 and E5.
and that's that.  The last riff is a little tricky at first,
but after a few tries,
it's pretty easy. 
I hope to tab out the solo at the end at some time or another.  
	Enjoy
	Bret

Slight correction:
During the last riff until the end of the song, the rhythm alternates between F, Bb(5), and G#
       F          Bb(5)      G#
(E)----1----  ----1----   ----3-----
(B)----1----  ----3----   ----3-----
(G)----2----  ----3----   ----4-----
(D)----3----  ----3----   ----5-----
(A)----3----  ----1----   ----5-----
(E)----1----  ---------   ----3-----

And here's the solo at the end, as promised.

(E)--------------------------------------------------------
(B)----------------9-----9-9^--6--6-6-6--------------------
(G)-(s)10--10--10----10------------------5--8--10--10-10---
(D)--------------------------------------------------------
(A)--------------------------------------------------------
(E)--------------------------------------------------------


(E)--------------------------------------------------------
(B)-----9-9^--6-6--9-----4--6->-9-6----4-6->-9-------------
(G)--10---------------5--------------5----------10--10--10-
(D)--------------------------------------------------------
(A)--------------------------------------------------------
(E)--------------------------------------------------------


(E)--------------------------------------------------------
(B)--9----9-9^--6-6-9----4-6->-9-6----4-6->-9--6-6-9-9-->-13
(G)----10--------------5------------5----------------------
(D)--------------------------------------------------------
(A)--------------------------------------------------------
(E)--------------------------------------------------------

      the eight times are played quickly for both notes
(E)--------------------------------------------------------
(B)-13-(8 times)-->--16-(8 times)-----4-6-9-6-----4-6-9-----
(G)-------------------------------5-----------5------------
(D)--------------------------------------------------------
(A)--------------------------------------------------------
(E)--------------------------------------------------------


(E)--------------------------------------------------------
(B)----------9----9-9^-6-6-9----4-6-9-6----4-6-9--6-6-9-9->
(G)-10-10-10---10-------------5----------5-----------------
(D)--------------------------------------------------------
(A)--------------------------------------------------------
(E)--------------------------------------------------------

                                               (song fades)
(E)--------------------------------------------------------
(B)-13-(8 times)--16-(8 times)--18-(6 times)-18^--16--18---
(G)--------------------------------------------------------
(D)--------------------------------------------------------
(A)--------------------------------------------------------
(E)--------------------------------------------------------

Key:
>  slide
^  one step bend and release


Quer fazer uma correção nesta cifra?







    Comentários (0) Postar um Comentário

    Nenhum comentário encontrado. Seja o primeiro!