Cifra da música: Denial, Revisited - Offspring

Esse cifra de Offspring já foi acessado por 449 pessoas.

Comente

Tom: Eb

Intro:

E|-----------------------------------------------|
B|-----------------------------------------------|
G|--2-2-2-2/3-2----------------------------------|
D|---------------5-5--3-3--1-1-1-1/3-3-----------|
A|--------------------------------------3-3-3-3--|
E|-----------------------------------------------|


E|-----------------------------------------------|
B|-----------------------------------------------|
G|--2-2-2-2/3-2----------------------------------|   [2x]
D|---------------5-5--3-1-3-3--------------------|
A|-----------------------------------------------|
E|-----------------------------------------------|

|____________________Guitarra 1__________________|
|                                                |

E|-----------------------------------------------|
B|-----------------------------------------------|
G|----8---8-----10---10-----8---8-----10---10----|
D|----8---8-----10---10-----8---8-----10---10----|
A|----6---6-----8----8------6---6-----8----8-----|
E|-----------------------------------------------|

|____________________Guitarra 2__________________|
|                                                |

Final da Intro:

E|-----------------------------------------------|
B|----8/10-10-10-10---10-10-10-11-10-11-11/13----|
G|-----------------------------------------------|

|____________________Guitarra 1__________________|
|                                                |

F
So here we go
           Eb       Bb     F
Having the same old fight again
F
There she goes
         Eb        Bb    F
Same old game that never ends 
F
If I could say
F      
The right worlds
Eb  Bb           F
I know, I could make you stay
F
If I could say
F
The right worlds
Eb     Bb         F
Things would work out all right

|__________Guitarra 2_________|
|                             |

Riff:

E|---------------------------------------------------------------------|         
B|-----8/10----10-10-10-----8/10----10--10-10---10/8---8---6---6-8/10--| 
G|--10------10-----------10------10------------------8---8---7---------|
                                                                 [4x]
|_______________________________Guitarra 1_____________________________|
|                                                                      |

F5         Eb5
And if you go
          Bb5
I Won’t believe 
            F5
That it’s forever
            Eb5
And you can go
               Bb5
But I’ll never leave
               F5
Cause it’s not over

(Intro. Não tocar o ”final da Intro“.)  

F
Replay last night 
           Eb  Bb            F
Talking it out don’t make it right
F             
I know she’s tried, but my whole world 
Eb         Bb        F        
Is her and all we’ve got now

|______________Guitarra 2_____________|
|                                     |

(Riff, Guitarra 1, Tocar 2x.)

F5         Eb5
And if you go 
          Bb5
I Won’t believe
            F5
That it’s forever
            Eb5
I Won’t let go
        Bb5                F5
Even if she says that it’s over
             Eb5
I know it’ll be
               Bb5
Different this time
         G#5  Bb5    Eb5 – Bb5 – F5
If you’d Just stay

(Intro. Não tocar o ”final da Intro“.)

Após a Intro,F5:

E|-----------------------------|
B|-----------------------------|
G|-----------------------------|
D|--3--3--3--3--3--3--3--3--3--|
A|--3--3--3--3--3--3--3--3--3--|
E|--1--1--1--1--1--1--1--1--1--|

|__________Guitarra 2__________|
|                              |

            Eb5
And when we wrote this story
Bb5
How did it end?
   F5
It was you and me for all our lives
     Eb5
Come on, don’t say it
Bb5
We’ll try again
       F5
And if I’d Just hold you

We could last
    Eb5
But she stands softly 
Bb5
Tears down her face
F5
Hitting me, Oh God

This is the end
         Eb5
I’d wait here for you
            Bb5                    F
But there’s nothing more now I can do
            Eb     Bb
How did you know
            F
How did you know
            Eb     Bb
How did you know
     F
Finally   

E|---------------------------------------------------------|
B|---8/10-10-10-10--10-10-10-11-10-11-11/13--11-10-8-8--6--|
G|--10----------10-----------10----------------------8—-7--|
(How...How did you know...How...)

Este Riff começa à partir do ponto sublinhado.  


Quer fazer uma correção nesta cifra?







    Comentários (0) Postar um Comentário

    Nenhum comentário encontrado. Seja o primeiro!