Cifra da música: Vultures - Offspring

Esse cifra de Offspring já foi acessado por 629 pessoas.

Comente

Veja também o vídeo da música tocada.


Tom:A

Intro:

E:------------------------------------|
B:------------------------------------|
G:------------------------------------|
D:----2-----2-----2-------------------|
A:--0---0-3---3-2---2-----2-----------|
E:--------------------0-3---3---------|

verso:no verso é tocada a intodução(intro)mas,se
você tem dificuldades para tocar a introdução,pode
tocar os seguintes acordes:A5 C5 B5 E5 G5-B5-G5(os
3 últimos acordes devem ser tocados mais rápido).

Pré-coro:D5 D5 F5 F5 A5 A5 A5 C5(3x)* no final da 
terceira vez:E5 E5 E5

Coro:A5 A5 C5 C5 E5 E5 E5 E5(3x)* no final da terceira vez:D5 D5 D5 D5 E5 E5 E5 E5

Solo:

E:--------------------------------------------------
B:--------------------------------------------------
G:--2/5-54/54-0---2/5-5/75-4/54--2/5-54/54-0--
D:----------------2--------------------------------2
A:--------------------------------------------------
E:--------------------------------------------------

E:--------------------------|
B:--------------5-3---------|
G:--2/5-5/75-4-----5-4-----|
D:--------------------------|
A:--------------------------|
E:--------------------------|

Ordem:

 1:intro
 2:verso
 3:verso
 4:pré-coro
 5:coro
 6:intro
 7:verso
 8:pré-coro
 9:coro
10:solo
11:pré-coro
12:coro






Quer fazer uma correção nesta cifra?







    Comentários (0) Postar um Comentário

    Nenhum comentário encontrado. Seja o primeiro!