Cifra da música: The Meaning Of Life - Offspring

Esse cifra de Offspring já foi acessado por 729 pessoas.

Comente

Veja também o vídeo da música tocada.


/  - slide
 x  - abafado
 *  - repetir 3 ou 4 vezes

Intro:
|------------------------------------------------------|
|------------------------------------------------------|
|--7--10-7----10--10-7-10-12--12/13-12--10--7--10------|
|--7--10-7-10-10--10-7-10-12--12/13-12--10--7--10-10---|
|--5--8--5-10-8---8--5-8--10--10/13-10--8---5--8--10---|
|----------8--------------------------------------8----|

|-------------------------------------------|
|-------------------------------------------|
|--7-7-7-7--10-7-----10-10-10-10--10-7-10---|
|--7-7-7-7--10-7-10--10-10-10-10--10-7-10---|
|--5-5-5-5--8--5-10--8--8--8--8---8--5-8----|
|----------------8--------------------------|
  
|--------------------------------------------------------------------|
|--------------------------------------------------------------------|
|--12-12-12-12-12/13-12--10-10-9-9--10----7-----7-----7-----7-----7--|
|--12-12-12-12-12/13-12--10-10-9-9--10-10-7--10-7--10-7--10-7--10-7--|
|--10-10-10-10-10/13-10--8--8--7-7--8--10-5--10-5--10-5--10-5--10-5--|
|--------------------------------------8-----8-----8-----8-----8-----|


Verso 1: Baixo e bateria 
 On the way
 Trying to get where I'd like to say
 I'm always feeling steered away
 By someone trying to tell me
 What to say and do

Verso 2:
|----------------------------------------------------------------|
|----------------------------------------------------------------|
|--7xx--7-7-7xx--7-7-9-10xx--10-10-10xx--10-10-------------------|
|--7xx--7-7-7xx--7-7-9-10xx--10-10-10xx--10-10-10xx--10-10-10xx--|
|--5xx--5-5-5xx--5-5-7--8xx---8--8--8xx---8--8-10xx--10-10-10xx--|
|-----------------------------------------------8xx---8--8--8xx--|

|---------------------------|
|---------------------------|
|---------------------------|
|--10-10-8xx--8-8-8-7-7-5*--|
|--10-10-8xx--8-8-8-7-7-5*--|
|---8--8-6xx--6-6-6-5-5-3*--|
 I don't want it
 I gotta go find my own way
 I gotta go make my own mistakes
 Sorry man for feeling
 Feeling the way I do

Refrão:
|------------------------------------------------------------------|
|------------------------------------------------------------------|
|--7*-7*---------------10*-10*----7*-7*----------------------------|
|--7*-7*-8*-8*-10*-10*-10*-10*-10-7*-7*-8*-8*-10*-10*-7*-7-7-10-10-|
|--5*-5*-8*-8*-10*-10*--8*--8*-10-5*-5*-8*-8*-10*-10*-7*-7-7-10-10-|
|--------6*-6*--8*--8*----------8-------6*-6*--8*--8*-5*-5-5--8--8-|

|----------------------------------------------------------------------|
|----------------------------------------------------------------------|
|--7*-7*---------------10*-10*-------------------------10--7/10-7/10-|
|--7*-7*-8*-8*-10*-10*-10*-10*-10-8*-8*-8*-8*-10*-10*--10--7/10-7/10-|
|--5*-5*-8*-8*-10*-10*--8*--8*-10-8*-8*-8*-8*-10*-10*---8--5/-8-5/-8-|
|--------6*-6*--8*--8*----------8-6*-6*-6*-6*--8*--8*------------------|
 On yeah, Oh yeah
 Open wide and they'll shove in
 Their meaning of life
 Oh yeah, Oh yeah
 But not for me I'll do it on my own
 Oh yeah, Oh yeah
 Open wide and swallow their meaning of life
 I can't make it work your way
 Thanks but no thanks

Intro:

Verso 3: Baixo e bateria 
 By the way
 I know your path has been tried and so
 It may seem like the way to go
 Me, I'd rather be found
 Trying something new

Verso 4:
 And the bottom line
 In all of this seems to say
 There's no right and wrong way
 Sorry if I don't feel like
 Living the way you do

Refrão:



Quer fazer uma correção nesta cifra?







    Comentários (0) Postar um Comentário

    Nenhum comentário encontrado. Seja o primeiro!