Cifra da música: The Noose - Offspring

Esse cifra de Offspring já foi acessado por 561 pessoas.

Comente

Veja também o vídeo da música tocada.


Intro: 
e|-----------------------------------------------------------------------
B|-----------------------------------------------------------------------
G|-------4------4-------0------0-----------------------------------------  Repete 4x
D|--2-2---2-2----0-0----0-0----0-0------2-0--4-0-5-0-4-0-2-0-4-0-5-0-4-0-
A|-----------------------------------------------------------------------
E|-----------------------------------------------------------------------

Riff 1
e|-----------------------------------------------------------------------
B|-----------------------------------------------------------------------
G|-----9........------------- 7........--------12.........------9........
D|-----9........---------------------------------------------9.........--
A|-----7........------7.......--------------------------------7........--
E|-----------------------------------------------------------------------

Well our souls are all mistaken in the same misguided way
We all end up forsaken, we're just choosing our own way
The future now incinerates before our very eyes
And leaves us with emptiness of no more tries 
Riff 2
e|---------------------------------------------------------------------------------------------------------------
B|---------------------------------------------------------------------------------------------------------------
G|-9-9-9-9-9-9-------------------7-7-7-7-7-7---9-9-9-9-9-9--9-9-9-9-9-9-------------------7-7-7-7-7-7-7-7-7-7-7-7
D|-9-9-9-9-9-9--5-5-5-5-5-5---7-7-7-7-7-7---9-9-9-9-9-9--9-9-9-9-9-9---5-5-5-5-5-5--7-7-7-7-7-7-7-7-7-7-7-7------
A|-7-7-7-7-7-7--5-5-5-5-5-5---5-5-5-5-5-5---7-7-7-7-7-7--7-7-7-7-7-7---5-5-5-5-5-5--5-5-5-5-5-5-5-5-5-5-5-5------
E|-----------------3-3-3-3-3-3------------------------------------------------------3-3-3-3-3-3------------------
Well our visions of glory have spiraled down the drain
The best of our intentions come crashing down in flames
The depths of our despair we are unable to contain
It's shallow living 

Refrão
e|---------------------------------------------------------
B|---------------------------------------------------------
G|-9-9-9-9-9-9-------------------7-7-7-7-7-7---9-9-9-9-9-9-   Repete 2x
D|-9-9-9-9-9-9--5-5-5-5-5-5---7-7-7-7-7-7---9-9-9-9-9-9-- 
A|-7-7-7-7-7-7--5-5-5-5-5-5---5-5-5-5-5-5---7-7-7-7-7-7-- 
E|-----------------3-3-3-3-3-3-----------------------------

The noose is falling
And all my friends are crawling
The noose is falling
And enemies are rising
A truth appalling
Our mak'r comes a calling
The noose is falling
And enemies are rising 
Riff 3
e|---------------------------------------------------------------------------------------------------
B|---------------------------------------------------------------------------------------------------
G|-9-9---------------------------7-7-----------7-7-7-7-7-7-7-7-7-7-7-7-----9-7-7-7-7-7-7-7-7-7-7-7-7-
D|-9-9------------5-5-----------7-7-----------7-7-7-7-7-7-7-7-7-7-7-7-5-5-9-7-7-7-7-7-7-7-7-7-7-7-7--
A|-7-7------------5-5-----------5-5-----------5-5-5-5-5-5-5-5-5-5-5-5-5-5-7-5-5-5-5-5-5-5-5-5-5-5-5--
E|-----------------3-3---------------------------------------------------------3-3-------------------

Well the tracers from yesteryear are burning in the dust
Your bruises are reminders of naivete and trust
You're only feeling stronger cause your body's getting numb
Now I lay you down
Put the coins in your eyes
And blow the candles out 
Refrão
The noose is falling
And all my friends are crawling
The noose is falling
And enemies are rising
A truth appalling
Our mak'r comes a calling
The noose is falling
And enemies are rising 
Repete Intro
Solinho
e|------------------------------------------------
B|--------12-12h10---12----15-15b-15b-15b-15b-15b-
G|----9-------------------------------------------
D|------------------------------------------------
A|------------------------------------------------
E|------------------------------------------------
Repete Refrão
Repete Riff 1
Repete Intro 4x
e|---------------------------------------------
B|---------------------------------------------
G|-9-9-x-9--------------7-7-x-7-7-7-7-7/9-xx-9- Repete 2x
D|-9-9-x-9--5-5-x-5---7-7-x-7-7-7-7-7/9-xx-9---
A|-7-7-x-7--5-5-x-5---5-5-x-5-5-5-5-5/7-xx-7---
E|------------3-3-x-3-------------------------- 
Repete Intro 2x
No more!
No more!
Nothing! 
No more! 
No more!
Ever!
No!
More! 
Repete Refrão 
Repete Riff 1



Quer fazer uma correção nesta cifra?







    Comentários (0) Postar um Comentário

    Nenhum comentário encontrado. Seja o primeiro!