Cifra da música: Way Down The Line - Offspring

Esse cifra de Offspring já foi acessado por 578 pessoas.

Comente

Veja também o vídeo da música tocada.


: - let ring
/  - slide
* - repeat 7 or 8 times
pm - palm mute (play pm until the line above stops, then play clear)
h - hammer on 


intro

|-------------------------------|
|-------------------------------|
|-7:------7:-------7:------7:-/-|
|-7:--5:--7:--5-7--7:--7:--7:-/-|
|-5:--5:--5:--5-7--5:--7:--5:-/-|
|-----3:------3-5------5:-------|

verse

|-----------------------------------------|
|-----------------------------------------|
|-----------------------------------------|
|-12-1210--12-12--10/12-12--10/12-12-10--|
|-12-1210--12-12---8/10-10---8/10-10-10--|
|-10-10-8--10-10----------------------8--|

verse 2

pm__________________________________________________________________
|------------------------------------------------------------------
|------------------------------------------------------------------
|-7-7-7-7-7-7-7-7-----------------7-7-7-7-7-7-7-7------------------
|-7-7-7-7-7-7-7-7-5-5-5-5-5-5-5-5-7-7-7-7-7-7-7-7-5-5-5-5-5-5-5-5--
|-5-5-5-5-5-5-5-5-5-5-5-5-5-5-5-5-5-5-5-5-5-5-5-5-5-5-5-5-5-5-5-5--
|-----------------3-3-3-3-3-3-3-3-----------------3-3-3-3-3-3-3-3--
_________________|
----------------------------------|
----------------------------------|
-7-7-7-7-7-7-7-7------------------|
-7-7-7-7-7-7-7-7-5-5-5-5-7-7-7-7--|
-5-5-5-5-5-5-5-5-5-5-5-5-7-7-7-7--|
-----------------3-3-3-3-5-5-5-5--|

chorus 1

|---------------------------------|
|---------------------------------|
|-7*----7*------------------7*----|
|-7*-5*-7*-5-5-5-5-7-7-7-7--7*-7*-|
|-5*-5*-5*-5-5-5-5-7-7-7-7--5*-7*-|
|----3*----3-3-3-3-5-5-5-5-----5*-|

chorus 2

|-------------------------------------------------------------------------------|
|-------------------------------------------------------------------------------|
|-7*----7*------------------7*----7*-7*--7*----7*------------------7*----7*-7*--|
|-7*-5*-7*-5-5-5-5-7-7-7-7--7*-7*-7*-7*--7*-5*-7*-5-5-5-5-7-7-7-7--7*-7*-7*-7*--|
|-5*-5*-5*-5-5-5-5-7-7-7-7--5*-7*-5*-5*--5*-5*-5*-5-5-5-5-7-7-7-7--5*-7*-5*-5*--|
|----3*----3-3-3-3-5-5-5-5-----5*-----------3*----3-3-3-3-5-5-5-5-----5*--------|

bridge 1

|--------------------------------------------|
|--------------------------------------------|
|-/10*--12*----------------------------------|
|-/10*--12*--10/12-1210/12--10/12-1210/12--|
|-/-8*--10*--10/12-1210/12--10/12-1210/12--|
|-------------8/10-10-8/10---8/10-10-8/10--|

bridge 2

|-------------------------------------------------|
|-------------------------------------------------|
|-/10*--12*--7*--7*--10*--12-12-12-12-14-14-14-14-|
|-/10*--12*--7*--7*--10*--12-12-12-12-14-14-14-14-|
|-/-8*--10*--5*--5*---8*--10-10-10-10-12-12-12-12-|
|-------------------------------------------------|

outro

|---2---3h5-2--------9----11h12----7---8h10-7--------9----11h12-|
|-3---3-------3--/10---10--------8---8--------8--/10---10-------|
|---------------------------------------------------------------|
|---------------------------------------------------------------|
|---------------------------------------------------------------|
|---------------------------------------------------------------|

|---2---3h5-2--------9----11h12----7---8h10-7--------9----11h12-|
|-3---3-------3--/10---10--------8---8--------8--/10---10-------|
|---------------------------------------------------------------|
|---------------------------------------------------------------|
|---------------------------------------------------------------|
|---------------------------------------------------------------|

final note

|-10--|
|-10--|
|-11--|
|-12--|
|-12--|
|-10--| 
         Lyrics: 
Nothing changes cause it's all the same
The world you get's the one you give away
It all just happens again
Way down the line
There is a chain that's never broken
You know the story it's sad but true
An angry man gets drunk and beats his kids
The same old way his drunken father did
What comes around well it goes around
Nothing changes cause it's all the same
The world you get's the one you give away
It all just happens again
Way down the line 

At 17 Shannon is pregnant
As young as her mom when she had her
Her kid is never gonna have a dad
The same old way that Shannon never had
What comes around well it goes around
Nothing changes cause it's all the same
The world you get's the one you give away
It all just happens again
Way down the line
And all the things you learn when you're a kid
You'll fuck up just like your parents did
It all just happens again
Way down the line 

And welfare moms have kids on welfare
And fat parents they have fat kids too
You know it's never gonna end
The same old cycle's gonna start again
What comes around well it goes around 

 ×¥Eu, mais uma vez na fita!!!¥×Å®MäÑdø!!!
       ××××Gí, Te Amo××××



Quer fazer uma correção nesta cifra?







    Comentários (0) Postar um Comentário

    Nenhum comentário encontrado. Seja o primeiro!