Cifra da música: Da Hui - Offspring

Esse cifra de Offspring já foi acessado por 841 pessoas.

Comente

Veja também o vídeo da música tocada.


X = quantidade incontavel de palhetadas


Riff Principal
e|------------------|
B|------------------|
G|-------9----------|
D|-6-4-6-9-9-12-9-6-|
A|-6-4-6-7-9-12-9-6-|
E|-4-2-4---7-10-7-4-| 6x

Verso
e|-------|
B|-------|
G|-9-----|
D|-9-9-6-|
A|-7-9-6-|
E|---7-4-| 4x

Riff Principal
e|------------------|
B|------------------|
G|-------9----------|
D|-6-4-6-9-9-12-9-6-|
A|-6-4-6-7-9-12-9-6-|
E|-4-2-4---7-10-7-4-| 3x

Verso
e|-------|
B|-------|
G|-9-----|
D|-9-9-6-|
A|-7-9-6-|
E|---7-4-| 4x

Solo
e|------------------------------------|
B|-------------------9----------------|
G|-888x-999-6-9-888x---6-9-888x-999-6-|
D|------------------------------------|
A|------------------------------------|
E|------------------------------------|

Verso
e|-------|
B|-------|
G|-9-----|
D|-9-9-6-|
A|-7-9-6-|
E|---7-4-| 4x

Ponte (Cause Da Hui will fuck with you!)
e|---------------|
B|---------------|
G|---------------|
D|-66-66-6-6-6-6-|
A|-66-66-6-6-6-6-|
E|-44-44-4-4-4-4-|

Final
e|-------------------------|
B|-------------------------|
G|-------9-----------------|
D|-6-4-6-9-9-12-9-6666-4-7-|
A|-6-4-6-7-9-12-9-6666-4-7-|
E|-4-2-4---7-10-7-4444-2-5-|



Quer fazer uma correção nesta cifra?







    Comentários (0) Postar um Comentário

    Nenhum comentário encontrado. Seja o primeiro!