Cifra da música: Original Prankster - Offspring

Esse cifra de Offspring já foi acessado por 1335 pessoas.

Comente

Veja também o vídeo da música tocada.


 

[Solo1]

E|--------------------------- | -------------------
B|--------------------------- | -------------------
G|--------------------------- | -------------------
D|--------------------------- | ------------------
A|----0-0-3-0-----0-0-3-0-5-- | -0-0-3-0-5-0-2-3-2--
E|--------------------------- |--------------------

 
[Solo2]                           [Solo3]
E|---------------------------     E|--------------------
B|---------------------------     B|--------------------
G|---------------------------     G|--------------------
D|----------7----------------     D|----------7---------
A|------3-----7-6-5-5-3-5-3--     A|------3-----7-6-5---
E|--5-5---5------------------     E|--5-5---5-----------


[Solo4]
E|-------------------
B|-------------------
G|-------------------
D|-------------------
A|----3-7-6-5--3-5-3-
E|--5----------------




Intro:  [Solo1]   [Solo2]x4   [Solo3]

( Tocar o primeiro verso c/ solo 1 usando palm mute)
                   A
Until the break of dawn
A           D
Life, life cannot go by the letter
A            D
Time, time Prozac can make it better
A            D
Noise, noise any kind will do
         G                           E
Can you fell it sleep away when it's all on you


A             D
Crime, crime rockin' like Janet Reino
A           D
Time, time eighteen and life in Chino
A            D
Freud, Freud all along it's true
             G
When you'll see there comes a day
          E
Catches a up to you


 Refrão


Repete -> Intro


 A          D
Dime, dime so good to see ya
 A          D
Nine, nine don't wanna to be ya
 A            D
Crime, crime fine sensimilla
 A            D
Crime, crime fine sensimilla
 A            D
Crime, crime fine sensimilla
             G
When you'll see there comes a day
          E
Catches a up to you


Repete -> Refrão





Obs:
   - Não tenho certeza quanto à exatidão do [Solo2] mas foi o mais próximo
     que pude chegar, considerando que foi tirado num violão. :)

   - Durante as estrofes toque o [Solo2].

   - No refrão, toque o [Solo4].


Cifras por: Humberto Sasaki
Correções/Sugestões para: [email protected]


Quer fazer uma correção nesta cifra?







    Comentários (0) Postar um Comentário

    Nenhum comentário encontrado. Seja o primeiro!