Cifra da música: Pretty Fly ( For a White Guy ) - Offspring

Esse cifra de Offspring já foi acessado por 749 pessoas.

Comente

Veja também o vídeo da música tocada.


Música: Pretty fly ( for a white guy )
Grupo: Offspring
Álbum: Americana


Give it to me baby, ahnha ahnha
Give it to me baby, ahnha ahnha
Give it to me baby, ahnha ahnha
And all girls say i'm pretty fly 
for a white guy
                            x3
e|----------------------------|-----------------|
B|----------------------------|-----------------|
G|-4----4--------4----4--9--7-|-4----4--------4-|
D|-4----4--4--7--4----4--9--7-|-4----4--4--7--4-|
A|-2----2--4--7--2----2--7--5-|-2----2--4--7--2-|
E|---------2--5---------------|---------2--5----|
                               Uno duos três quatro cinco cinoc ses
                  X7
e|----7------7----|
B|----7------7----|
G|----9------9----|
D|----------------|
A|----------------|
E|----------------|
 You know it's kind of hard
 Just to get alone today
 Our subject isn't cool
 But the fakes it anyway
 He may not have a clue
 And he may not have style
 But everything he lacks
 Weel he makes up in denial

e|--------------------------------------------------|
B|--------------------------------------------------|
G|--------------------------------------------------|
D|------3-4-3-4------3-4-3-4------------------------|
A|-2--2---------2--2---------5--5-0-5--7-7-7-5-7--0-|
E|--------------------------------------------------|
  So don't debate, a player straight
  You know he really doesn't get it anyway

e|-----------------------------------------------------|
B|-----------------------------------------------------|
G|-----------------------------------------------------|
D|------3-4-3-4------3-4-3-4---------------------------|
A|-2--2---------2--2---------5--5-0-5--7-7-7-5-7-8-7-5-|
E|-----------------------------------------------------|
  He's gonna play the field, and keep it real
  For you no way, for you no way




e|--------------------------------------------------|
B|--------------------------------------------------|
G|--------------------------------------------------|
D|------3-4-3-4------3-4-3-4------------------------|
A|-2--2---------2--2---------5--5-0-5--7-7-7-5-7--0-|
E|--------------------------------------------------|
  So if you don't hate, just overcompensate
  At least you'll know you can
  Always go no Ricki Lake

e|-----------------------------------------------|
B|-----------------------------------------------|
G|-----------------------------------------------| 
D|-3/5--5---5--------------------4-3---2-0-2-----|
A|--------5---0-0-0---0-0---2-2---------------2--|
E|------------------0----------------------------|
  The world needs wannabe's so  hey hey
  Do that brand new thing

                             x3
e|----------------------------|-----------------|
B|----------------------------|-----------------|
G|-4----4--------4----4--9--7-|-4----4--------4-|
D|-4----4--4--7--4----4--9--7-|-4----4--4--7--4-|
A|-2----2--4--7--2----2--7--5-|-2----2--4--7--2-|
E|---------2--5---------------|---------2--5----|
 Give it to me baby, ahnha ahnha
 Give it to me baby, ahnha ahnha
 Give it to me baby, ahnha ahnha
 And all girls say i'm pretty fly 
 for a white guy 

                 X7
e|----7------7----|
B|----7------7----|
G|----9------9----|
D|----------------|
A|----------------|
E|----------------|
 He needs some cool tunes
 Not just any will surfice
 But they didn't have ice cube
 So he bought vanilla ice
 Now cruising in his pinto, he sees homies as he pass
 But if he looks twice
 They're gonna kick his lily ass

e|--------------------------------------------------|
B|--------------------------------------------------|
G|--------------------------------------------------|
D|------3-4-3-4------3-4-3-4------------------------|
A|-2--2---------2--2---------5--5-0-5--7-7-7-5-7--0-|
E|--------------------------------------------------|
  So don't debate, a player straight
  You know he really doesn't get it anyway

e|-----------------------------------------------------|
B|-----------------------------------------------------|
G|-----------------------------------------------------|
D|------3-4-3-4------3-4-3-4---------------------------|
A|-2--2---------2--2---------5--5-0-5--7-7-7-5-7-8-7-5-|
E|-----------------------------------------------------|
  He's gonna play the field, and keep it real
  For you no way, for you no way

e|--------------------------------------------------|
B|--------------------------------------------------|
G|--------------------------------------------------|
D|------3-4-3-4------3-4-3-4------------------------|
A|-2--2---------2--2---------5--5-0-5--7-7-7-5-7--0-|
E|--------------------------------------------------|
  So if you don't hate, just overcompensate
  At least you'll know you can
  Always go no Ricki Lake

e|-----------------------------------------------|
B|-----------------------------------------------|
G|-----------------------------------------------| 
D|-3/5--5---5--------------------4-3---2-0-2-----|
A|--------5---0-0-0---0-0---2-2---------------2--|
E|------------------0----------------------------|
  The world needs wannabe's so  hey hey
  Do that brand new thing

  
  Now he's getting a tattoo yeah 
  He's gettin ink done
  He asked for a '13', but they drew a '31'
  
e|-----------------------------|
B|-----------------------------|
G|-4-----2-4-----2-4-----------|
D|-4-----2-4-----2-4-----------|
A|-2-----0-2-----0-2-----2-0-0-|
E|-----------------------------|
  Friends say he's trying too hard
  And he's not quite hip
  But in his own mind
  He's the dopest trip

                             x3
e|----------------------------|-----------------------------------|
B|----------------------------|-----------------------------------|
G|-4----4--------4----4--9--7-|-------4---------------------------|
D|-4----4--4--7--4----4--9--7-|-------4---------------------------|
A|-2----2--4--7--2----2--7--5-|-------2-------------------2-9-7---|
E|---------2--5---------------|-----------------------------------|
 Give it to me baby, ahnha ahnha      uno duos tres quatro cinco cinoc ses
 Give it to me baby, ahnha ahnha
 Give it to me baby, ahnha ahnha

e|--------------------------------------------------|
B|--------------------------------------------------|
G|--------------------------------------------------|
D|------3-4-3-4------3-4-3-4------------------------|
A|-2--2---------2--2---------5--5-0-5--7-7-7-5-7--0-|
E|--------------------------------------------------|
  So don't debate, a player straight
  You know he really doesn't get it anyway

e|-----------------------------------------------------|
B|-----------------------------------------------------|
G|-----------------------------------------------------|
D|------3-4-3-4------3-4-3-4---------------------------|
A|-2--2---------2--2---------5--5-0-5--7-7-7-5-7-8-7-5-|
E|-----------------------------------------------------|
  He's gonna play the field, and keep it real
  For you no way, for you no way

e|--------------------------------------------------|
B|--------------------------------------------------|
G|--------------------------------------------------|
D|------3-4-3-4------3-4-3-4------------------------|
A|-2--2---------2--2---------5--5-0-5--7-7-7-5-7--0-|
E|--------------------------------------------------|
  So if you don't hate, just overcompensate
  At least you'll know you can
  Always go no Ricki Lake

e|-------------------------|
B|-------------------------|
G|-------------------------| 
D|-3/5--5---5--------------|
A|--------5---0-0-0---0-0--|
E|------------------0------|
  The world needs wannabe's so

e|-------------------------|
B|-------------------------|
G|-------------------------| 
D|-3/5--5---5--------------|
A|--------5---0-0-0---0-0--|
E|------------------0------|
  The world loves wannabe's so
 
e|-----------------------------------------------|
B|-----------------------------------------------|
G|-----------------------------------------------| 
D|-3/5--5---5--------------------4-3---2-0-2-----|
A|--------5---0-0-0---0-0---2-2---------------2--|
E|------------------0----------------------------|
  So let's get some more wannabe's so  hey hey
  And do that brand new thing



FIM

Cifrada por Rafael Silvestre Santos




Quer fazer uma correção nesta cifra?







    Comentários (0) Postar um Comentário

    Nenhum comentário encontrado. Seja o primeiro!