Cifra da música: Come Out Swinging - Offspring

Esse cifra de Offspring já foi acessado por 650 pessoas.

Comente

Veja também o vídeo da música tocada.


OBS.:       
Por ser uma música tocada 
rapidamente, são usados apenas
Power Acordes(acorde em que são tocadas 2 ou 3 notas:
primeira e quinta ou primeira-grave-,quinta e primeira-aguda).


Tom:E

Intro:
E5 E5 D5 E5 D5 E5 F#5 G5 G5 G5 D5 D5 G5 F#5 E5 E5 D5 E5 D5 E5 F#5 G5 G5 G5 D5 D5 G5 F#5 E5 E5 E5...

Verso:
E5 D5 E5 F#5 F#5 F#5 G5 F#5 D5 E5 (2x)
(You brace and hold it...)

Pré-coro 1:

E:--------------------------------------------------
B:-----------------------------(Primeira vez)-------
G:-9-9-9-9--7-7-7-7--9-9-9-9-(11-11-11--12-11-7-9-)-
D:--------------------------------------------------
A:-7-7-7-7--5-5-5-5--7-7-7-7-(-9--9--9--10--9-5-7-)-
E:--------------------------------------------------

E:--------------------------------------------------
B:--(segunda vez)-----------------------------------
G:--------------------------------------------------
D:--5-5-5-5-7-7-7-----------------------------------
A:--------------------------------------------------
E:--3-3-3-3-5-5-5-----------------------------------

Coro:
(don't turn away, don't turn away...)

E5 E5 D5 E5 D5 E5 D5 G5 G5 A5 G5 A5 G5 C5 C5 C5 D5
E5 E5 D5 E5 D5 E5 D5 G5 G5 A5 G5 A5 G5 A5 G5 E5 D5 E5

(Intro)
(verso)
(Your pacing's wearing...)   

Pré-coro 2:
E5 E5 E5 G5 G5 G5 A5 A5 A5 A5 A5
E5 E5 E5 G5 G5 G5 A5 A5 A5 G5 E5 D5

(Coro)

(pain inside can try again...)

C5 B5 D5 E5
(Repetir o pré-coro 1 duas vezes somente com a
'primeira vez'.)

Midnight,no sleep...)
E5 C5 A5 D5 B5 E5
E5 C5 A5 D5 B5 E5
E5 C5 A5 D5 B5 E5 G5 A5 G5 E5 D5 E5

(Coro)

Final:
C5 B5 A5 G5 A5 G5 A5 G5 E5 D5 E5
(pain inside...)



Quer fazer uma correção nesta cifra?







    Comentários (0) Postar um Comentário

    Nenhum comentário encontrado. Seja o primeiro!