Cifra da música: Amazed - Offspring

Esse cifra de Offspring já foi acessado por 598 pessoas.

Comente

Veja também o vídeo da música tocada.


Intro drums then...


|--------------------------------------------|
|--------------------------------------------|
|-----------------------7-7-7-7--5-5-5-5-5-5-|  X 4
|-7-7-7-7--5-5-5-5-5-5--7-7-7-7--5-5-5-5-5-5-|  
|-7-7-7-7--5-5-5-5-5-5--5-5-5-5--3-3-3-3-3-3-|
|-5-5-5-5--3-3-3-3-3-3-----------------------|

        Over the last two times a second guitar plays :

|-555-7-8--555-7-8------555-7-8-8/10-8-7-8-5-|
|--------------------------------------------|
|--------------------------------------------|
|--------------------------------------------|
|--------------------------------------------|
|--------------------------------------------|

|----------
|-----------
|------------
|-7----------
|-7---------
|-5--------

        And let it ring itself out...

      


|--------------------------------------------|
|--------------------------------------------|
|--------------------------------------------| X 2
|-7------------------------------------------|
|-7------------------------------------------|
|-5----7-8-5-7-8-5-7-8--810-8-7/3-3---------|
  Woah ...

|----------------------------------------------------|
|----------------------------------------------------|
|-------5-5--9-9-9-9-9-9----------------7-7-7-7-7-7--|
|-7-7---5-5--9-9-9-9-9-9-------5-5-5-5--7-7-7-7-7-7--|
|-7-7---3-3--7-7-7-7-7-7-------5-5-5-5--5-5-5-5-5-5--|
|-5-5--------------------------3-3-3-3---------------|
  Yeah...

|------------------------------------------------------------|
|------------------------------------------------------------|
|-------5-5--9-9-9-9-9-9-------------------------------------|
|-7-7---5-5--9-9-9-9-9-9-------------5-5-5-5----2-2-2-2----6-|
|-7-7---3-3--7-7-7-7-7-7-------------5-5-5-5----2-2-2-2----6-|
|-5-5--------------------------------3-3-3-3----0-0-0-0----4-|
  Yeah, ...

|----------------------------------------------------|
|----------------------------------------------------|
|-------5-5--9-9-9-9-9-9----------------7-7-7-7-7-7--|
|-7-7---5-5--9-9-9-9-9-9-------5-5-5-5--7-7-7-7-7-7--|
|-7-7---3-3--7-7-7-7-7-7-------5-5-5-5--5-5-5-5-5-5--|
|-5-5--------------------------3-3-3-3---------------|
  And...

|------------------------------------------------------------|
|------------------------------------------------------------|
|-------5-5--9-9-9-9-9-9-------------------------7-7-7-7-7-7-|
|-7-7---5-5--9-9-9-9-9-9-------------5-5-5-5-----7-7-7-7-7-7-|
|-7-7---3-3--7-7-7-7-7-7-------------5-5-5-5-----5-5-5-5-5-5-|
|-5-5--------------------------------3-3-3-3-----------------|
                  If ...

 X 2 with the second guitar playing...the second guitar bit :)

|----------
|-----------
|------------
|-7----------
|-7---------
|-5--------
        Let it ring out again...



 X 2

 X 2 + 2nd guitar...SURPRISE! :)

|----------
|-----------
|------------
|-7----------
|-7---------
|-5--------
        Let it ring...

|------------------------------------------|  This last bit starts off kinda
|------------------------------------------|  muted but gets louder and more
|---------------------77777777-9999--12-12-|  distorted when it gets to the
|-777777777-555555555-77777777-9999--12-12-|  9      
|-777777777-555555555-55555555-7777--10-10-|  9 bit...or something :)
|-555555555-333333333----------------------|  7



 X 2 + 2nd guitar

|----------
|-----------
|------------
|-7----------
|-7---------
|-5--------
        And fade out to finish...

I'm not sure about the timing, but if you listen to the CD you'll get the 
idea!

TADA!...At last thats finished...hope it's all ok...but if you've got any 
additions or corrections...like if the whole thing's wrong :)...mail me at my
mates account :
                        
                        [email protected]

        Enjoy :)
                Dave


--- 
version 2

From [email protected] Sun May  4 10:47:43 1997
Date: Tue, 18 Mar 1997 15:41:44 +0000 ()
From: 'Lawrence.Docherty' 
To: [email protected]
Subject: TAB 'Amazed' by 'The Offspring'

Ok, well this is the first time I've ever tried to TAB something, so
I've got
an excuse for any mistakes :)

By the way, the names Dave Bruce :)...just in case you REALLY wanted
to
know :P :)

Amazed by The Offspring
>From the album Ixnay On The Hombre

Intro drums then...


|--------------------------------------------|
|--------------------------------------------|
|-----------------------7-7-7-7--5-5-5-5-5-5-|  X 4
|-7-7-7-7--5-5-5-5-5-5--7-7-7-7--5-5-5-5-5-5-|
|-7-7-7-7--5-5-5-5-5-5--5-5-5-5--3-3-3-3-3-3-|
|-5-5-5-5--3-3-3-3-3-3-----------------------|

        Over the last two times a second guitar plays :

|-555-7-8--555-7-8------555-7-8-8/10-8-7-8-5-|
|--------------------------------------------|
|--------------------------------------------|
|--------------------------------------------|
|--------------------------------------------|
|--------------------------------------------|

|----------
|-----------
|------------
|-7----------
|-7---------
|-5--------

        And let it ring itself out...




|--------------------------------------------|
|--------------------------------------------|
|--------------------------------------------| X 2
|-7------------------------------------------|
|-7------------------------------------------|
|-5----7-8-5-7-8-5-7-8--810-8-7/3-3---------|
  Woah ...


|----------------------------------------------------|
|----------------------------------------------------|
|-------5-5--9-9-9-9-9-9----------------7-7-7-7-7-7--|
|-7-7---5-5--9-9-9-9-9-9-------5-5-5-5--7-7-7-7-7-7--|
|-7-7---3-3--7-7-7-7-7-7-------5-5-5-5--5-5-5-5-5-5--|
|-5-5--------------------------3-3-3-3---------------|
  Yeah...

|------------------------------------------------------------|
|------------------------------------------------------------|
|-------5-5--9-9-9-9-9-9-------------------------------------|
|-7-7---5-5--9-9-9-9-9-9-------------5-5-5-5----2-2-2-2----6-|
|-7-7---3-3--7-7-7-7-7-7-------------5-5-5-5----2-2-2-2----6-|   
|-5-5--------------------------------3-3-3-3----0-0-0-0----4-|
  Yeah..

|----------------------------------------------------|
|----------------------------------------------------|
|-------5-5--9-9-9-9-9-9----------------7-7-7-7-7-7--|
|-7-7---5-5--9-9-9-9-9-9-------5-5-5-5--7-7-7-7-7-7--|
|-7-7---3-3--7-7-7-7-7-7-------5-5-5-5--5-5-5-5-5-5--|
|-5-5--------------------------3-3-3-3---------------|
  And..

|------------------------------------------------------------|
|------------------------------------------------------------|
|-------5-5--9-9-9-9-9-9-------------------------7-7-7-7-7-7-|
|-7-7---5-5--9-9-9-9-9-9-------------5-5-5-5-----7-7-7-7-7-7-|
|-7-7---3-3--7-7-7-7-7-7-------------5-5-5-5-----5-5-5-5-5-5-|
|-5-5--------------------------------3-3-3-3-----------------|
                  If ...

 X 2 with the second guitar playing...the second guitar
bit :)

|----------
|-----------
|------------
|-7----------
|-7---------
|-5--------
        Let it ring out again...



 X 2

 X 2 + 2nd guitar...SURPRISE! :)

|----------  
|-----------
|------------
|-7----------
|-7---------
|-5--------
        Let it ring...
        
|------------------------------------------|
|------------------------------------------|
|---------------------77777777-9999--12-12-|
|-777777777-555555555-77777777-9999--12-12-|
|-777777777-555555555-55555555-7777--10-10-|
|-555555555-333333333----------------------|

This last bit starts off kinda muted but gets louder and more
distorted when it gets to the 9
			      9 bit...or something :)
			      7



 X 2 + 2nd guitar

|----------
|-----------
|------------
|-7----------
|-7---------
|-5--------
        And fade out to finish...

I'm not sure about the timing, but if you listen to the CD you'll get
the idea!

TADA!...At last thats finished...hope it's all ok...but if you've got
any additions or corrections...like if the whole thing's wrong :)...
mail me at my mates account :


                        [email protected]

        Enjoy :)
                Dave




Quer fazer uma correção nesta cifra?







    Comentários (0) Postar um Comentário

    Nenhum comentário encontrado. Seja o primeiro!