Cifra da música: What you are - Audioslave

Esse cifra de Audioslave já foi acessado por 553 pessoas.

Comente

A música What you are fez muito sucesso quando foi gravada por Audioslave. Quer conhecer a letra dela? Veja a letra de What you are e cante.

Veja também o vídeo da música tocada.


Intro.:  Riff 1    (Distortion on)   Bm  Em  D/B  A/C# 
E|---------------------------------------------------------------------------------------------
B|---------------------------------------------------------------------------------------------
G|---------------------------------------------------------------------------------------------
D|----4----4------4-------2---2------2-----0---0------0----------2---2------2------------------
A|-2-----------2-------2----------2------2----------2------2---4----------4------0---2---------
E|---------------------------------------------------------------------------------------------

  'And when you wanted me I came to you...'

Riff 2
E|-----------------------------------------------------------------------------0--------
B|-----------------------------------------------------------------------------0--------
G|-----------------------------------------------------------------------------0--------
D|----4---4----4---2---2------2------5---5------5-----2---2------2-------------0--------
A|-2---------2-------------2-----5-----------5------4--------4-----------------0--------
E|-----------------------------------------------------------------------------0--------

  'And if I go far away I know you'll find another slave...'

Riff 3
E|---------------------------------------7-----7--------5----------------------------------------------------------------
B|---------------------------------------10----9--------7----------------------------------------------------------------
G|---------------------------------------9-----9--------7----------------------------------------------------------------
D|-------------------7---7---7---7-------9--------------7------11---11---11---11----11----10----9----7----6----4---------
A|--9---9---9--9-----5---5---5---5-------7--------------5-------9----9---9-----9----9-----8-----7----5----4----2---------
E|--7---7---7--7-----5---5---5---5-------7--------------5-------9----9---9-----9----9-----8-----7----5----4----2---------

(Chorus) 'Cause now I'm free from what you want...'

Riff 4
E|----------------------------0--------
B|------0---------------------0--------
G|------0---------------------0--------
D|------0---------------------0--------
A|----------------------------0--------
E|----------------------------0--------

  'Then a vision came to me when you came along...'

Obs.: Esta versão não traz a parte de Slide guitar + wah wah pedal 
 (Entre o refrão e a parte correspondente ao riff 4).



Quer fazer uma correção nesta cifra?







    Comentários (0) Postar um Comentário

    Nenhum comentário encontrado. Seja o primeiro!