Cifra da música: Cochise - Audioslave

Esse cifra de Audioslave já foi acessado por 564 pessoas.

Comente

A música Cochise fez muito sucesso quando foi gravada por Audioslave. Quer conhecer a letra dela? Veja a letra de Cochise e cante.

Veja também o vídeo da música tocada.


Afinação Normal (E, B, G, D, A, e)
Legengas:

P.M. – Palm Mute
~~~  - Deixar Tocar
xxx  - Abafar
 ^	- Full Bend 
 H	- Hammer On
 P	- Pull Off

Intro [a] (0:00 a 0:30s)

Essa parte não tem guitarras, mas fica um som de ‘elevador’
no fundo junto com a bateria

E:-----------------...|
B:-----------------...|
G:-----------------...|
D:-----------------...|
A:-----------------...|
E:-0-0-0-0-0-0-0-0-...|
   P.M-------------...|

Intro [b] (0:31 a 0:54s)
Assim que a bateria muda, uma guitarra continua na Intro [a]
e a segunda guitarra entra.
 

Verso          Repete 10x
E:----------------------------|-----------------------|
B:----------------------------|-----------------------|
G:----------------------------| ----------------7--8--|
D:----------------------------|-----------------7--8--|
A:--7-5---5-------7-5---------|--7-5---5--------5--6--|
E:------7---7-3-0-----7-3-----|------7---7-3-0--------|



Refrão           Repete 3x    Solo
E:---------------------------|----------------------------------------|
B:---------------------------|----------------------------------------|
G:---9-9---------------------|--2--2--2--2--14--14--14--14--14--14--14|
D:---9-9---------------------|----------------------------------------|
A:---7-7-----------------2-5-|----------------------------------------|
E:--------5-3-0---3----5-----|----------------------------------------|

Verso           Repete 6x
E:----------------------------|-----------------------|
B:----------------------------|-----------------------|
G:----------------------------| ----------------7--8--|
D:----------------------------|-----------------7--8--|
A:--7-5---5-------7-5---------|--7-5---5--------5--6--|
E:------7---7-3-0-----7-3-----|------7---7-3-0--------|

Refrão         Repete 7x         Repete 3x      2x
E:---------------------------|-------------|-----------|
B:---------------------------|-------------|-----------|
G:---9-9---------------------|--4-----4----|--2---2----|
D:---9-9---------------------|-------------|-----------|
A:---7-7-----------------2-5-|-----2-----2-|----0---0--|
E:--------5-3-0---3----5-----|-------------|-----------|


  Repete 5x
E:---------------------------|
B:---------------------------|
G:---------------------------|
D:---9-9---------------------|
A:---7-7-----------------2-5-|
E:--------5-3-0---3----5-----|

Refrao 7x

Para entender melhor a música escute-a 1º

Well I've been watchin'
While you’ve been coughin'
I’ve been drinking life
While you’ve been nauseous
So I drink to health
While you kill yourself
And I’ve got just one thing that I can offer

Go on and save yourself
Take it out on me
Go on and save yourself
Take it out on me, Ya

I'm not a martyr, I'm not a prophet
And I wont preach to you
But here's a caution
You better understand
That I wont hold your hand
But if it helps you man
Then I wont stop it

Go on and save yourself
Take it out on me
Go on and save yourself
Take it out on me 
Go on and save yourself
Take it out on me 
Go on and save yourself
Take it out on me, Ya 

Drown, if you want
And I'll see you at the bottom
Where you crawl
On my skin
And put the blame on me
So you don’t feel a thing 

Go on and save yourself
Take it out on me
Go on and save yourself
Take it out on me
Go on and save yourself
Take it out on me
Go on and save yourself
Take it out on me, Ya


__________________________________________________
Correção: Rafael Marques Franco ([email protected]) 
Correção: Thiago Duarte ([email protected])
Correção: Carolina Souza ([email protected])
Correção: Caio Pereira Cammarota ([email protected])
Correção: Marcos Paulo ([email protected])


Quer fazer uma correção nesta cifra?







    Comentários (0) Postar um Comentário

    Nenhum comentário encontrado. Seja o primeiro!